  0
SECTION
  2
HEADER
  9
$ACADVER
  1
AC1006
  9
$AXISMODE
 70
     0
  9
$AXISUNIT
 10
0.0625
 20
0.0625
  9
$CECOLOR
 62
0
  9
$CELTYPE
  6
CONTINUOUS
  9
$CLAYER
  8
LAYER1
  9
$EXTMIN
 10
0
 20
0
  9
$EXTMAX
 10
14.2812
 20
10.8212
  9
$LIMMIN
 10
0
 20
0
  9
$LIMMAX
 10
14.2812
 20
10.8212
  9
$GRIDMODE
 70
     0
  9
$GRIDUNIT
 10
0.125
 20
0.125
  9
$MIRRTEXT
 70
     1
  9
$SNAPMODE
 70
     1
  9
$SNAPUNIT
 10
0.125
 20
0
  9
$SNAPSTYLE
 70
     0
  9
$SPLINESEGS
 70
     8
  9
$SPLINETYPE
 70
     6
  0
ENDSEC
  0
SECTION
  2
TABLES
  0TABLE  2VPORT 70     2  0VPORT  2*ACTIVE 70     0 100.0 200.0 111.0 211.0 1213.01087 224.5 130.0 230.0 141.0 241.0 150.0 250.0 160.0 260.0 361.0 170.0 270.0 370.0 409.0 412.891304 4250.0 430.0 440.0 500.0 510.0 71     0 72   100 73     1 74     1 75     0 76     0 77     0 78     0  0ENDTAB
  0
TABLE
  2
LTYPE
 70
     1
  0
LTYPE
  2
CONTINUOUS
 70
    64
  3
Descriptive Text
 72
    65
 73
     0
 40
0
  0
ENDTAB
  0
TABLE
  2
LAYER
 70
     1
  0
LAYER
  2
LAYER1
 70
     0
 62
     7
  6
CONTINUOUS
  0
ENDTAB
  0TABLE  2STYLE 70     1  0STYLE  2STANDARD 70     0 400.0 411.0 500.0 71     0 420.2  3txt  4  0ENDTAB
  0
TABLE
  2
VIEW
 70
     0
  0
ENDTAB
  0
TABLE
  2
UCS
 70
     0
  0
ENDTAB
  0
TABLE
  2
DWGMGR
 70
     0
  0
ENDTAB
  0
ENDSEC
  0
SECTION
  2
BLOCKS
  0
BLOCK
  8
LAYER1
  2
Group1
 70
     0
 10
0
 20
0
 30
0
  0
LINE
  8
LAYER1
  6
CONTINUOUS
 62
     7
 10
9.5972
 20
8.4323
 30
0
 11
14.3333
 21
8.4323
 31
0
  0
LINE
  8
LAYER1
  6
CONTINUOUS
 62
     7
 10
10.0694
 20
8.4045
 30
0
 11
9.8889
 21
8.4045
 31
0
  0
LINE
  8
LAYER1
  6
CONTINUOUS
 62
     7
 10
10.0556
 20
8.3767
 30
0
 11
9.9028
 21
8.3767
 31
0
  0
LINE
  8
LAYER1
  6
CONTINUOUS
 62
     7
 10
10.0694
 20
8.3628
 30
0
 11
9.8889
 21
8.3628
 31
0
  0
LINE
  8
LAYER1
  6
CONTINUOUS
 62
     7
 10
10.0556
 20
8.3489
 30
0
 11
9.9028
 21
8.3489
 31
0
  0
LINE
  8
LAYER1
  6
CONTINUOUS
 62
     7
 10
10.0694
 20
8.3351
 30
0
 11
9.8889
 21
8.3351
 31
0
  0
LINE
  8
LAYER1
  6
CONTINUOUS
 62
     7
 10
10.0556
 20
8.3212
 30
0
 11
9.9028
 21
8.3212
 31
0
  0
LINE
  8
LAYER1
  6
CONTINUOUS
 62
     7
 10
10.0694
 20
8.3073
 30
0
 11
9.8889
 21
8.3073
 31
0
  0
LINE
  8
LAYER1
  6
CONTINUOUS
 62
     7
 10
10.0556
 20
8.2934
 30
0
 11
9.9028
 21
8.2934
 31
0
  0
LINE
  8
LAYER1
  6
CONTINUOUS
 62
     7
 10
10.0694
 20
8.2795
 30
0
 11
9.8889
 21
8.2795
 31
0
  0
LINE
  8
LAYER1
  6
CONTINUOUS
 62
     7
 10
10.0556
 20
8.2517
 30
0
 11
9.9028
 21
8.2517
 31
0
  0
LINE
  8
LAYER1
  6
CONTINUOUS
 62
     7
 10
10.0694
 20
8.2378
 30
0
 11
9.8889
 21
8.2378
 31
0
  0
LINE
  8
LAYER1
  6
CONTINUOUS
 62
     7
 10
10.0556
 20
8.2239
 30
0
 11
9.9028
 21
8.2239
 31
0
  0
LINE
  8
LAYER1
  6
CONTINUOUS
 62
     7
 10
10.0694
 20
8.2101
 30
0
 11
9.8889
 21
8.2101
 31
0
  0
LINE
  8
LAYER1
  6
CONTINUOUS
 62
     7
 10
10.0556
 20
8.1962
 30
0
 11
9.9028
 21
8.1962
 31
0
  0
LINE
  8
LAYER1
  6
CONTINUOUS
 62
     7
 10
10.0694
 20
8.1823
 30
0
 11
9.8889
 21
8.1823
 31
0
  0
LINE
  8
LAYER1
  6
CONTINUOUS
 62
     7
 10
10.0556
 20
8.1684
 30
0
 11
9.9028
 21
8.1684
 31
0
  0
LINE
  8
LAYER1
  6
CONTINUOUS
 62
     7
 10
10.0694
 20
8.1545
 30
0
 11
9.8889
 21
8.1545
 31
0
  0
LINE
  8
LAYER1
  6
CONTINUOUS
 62
     7
 10
10.0556
 20
8.1267
 30
0
 11
9.9028
 21
8.1267
 31
0
  0
LINE
  8
LAYER1
  6
CONTINUOUS
 62
     7
 10
10.0694
 20
8.1128
 30
0
 11
9.8889
 21
8.1128
 31
0
  0
LINE
  8
LAYER1
  6
CONTINUOUS
 62
     7
 10
10.0556
 20
8.0989
 30
0
 11
9.9028
 21
8.0989
 31
0
  0
LINE
  8
LAYER1
  6
CONTINUOUS
 62
     7
 10
10.0694
 20
8.0851
 30
0
 11
9.8889
 21
8.0851
 31
0
  0
LINE
  8
LAYER1
  6
CONTINUOUS
 62
     7
 10
10.0556
 20
8.0712
 30
0
 11
9.9028
 21
8.0712
 31
0
  0
LINE
  8
LAYER1
  6
CONTINUOUS
 62
     7
 10
10.0694
 20
8.0434
 30
0
 11
9.8889
 21
8.0434
 31
0
  0
LINE
  8
LAYER1
  6
CONTINUOUS
 62
     7
 10
10.0556
 20
8.0295
 30
0
 11
9.9028
 21
8.0295
 31
0
  0
LINE
  8
LAYER1
  6
CONTINUOUS
 62
     7
 10
10.0694
 20
8.4184
 30
0
 11
9.8889
 21
8.4184
 31
0
  0
LINE
  8
LAYER1
  6
CONTINUOUS
 62
     7
 10
10.0694
 20
8.4184
 30
0
 11
10.0694
 21
8.0434
 31
0
  0
POLYLINE
  8
LAYER1
  6
CONTINUOUS
 62
     7
 66
     1
 70
     0
 40
0.001
 41
0.001
  0
VERTEX
  8
LAYER1
 10
9.8889
 20
8.4184
 30
0
 70
     0
  0
VERTEX
  8
LAYER1
 10
9.8889
 20
8.0434
 30
0
 70
     0
  0
VERTEX
  8
LAYER1
 10
9.9028
 20
8.0295
 30
0
 70
     0
  0
SEQEND
  0
LINE
  8
LAYER1
  6
CONTINUOUS
 62
     7
 10
10.0694
 20
8.0434
 30
0
 11
10.0556
 21
8.0295
 31
0
  0
LINE
  8
LAYER1
  6
CONTINUOUS
 62
     7
 10
9.8889
 20
8.4184
 30
0
 11
9.8889
 21
8.4323
 31
0
  0
ENDBLK
  8
LAYER1
  0
BLOCK
  8
LAYER1
  2
Group2
 70
     0
 10
0
 20
0
 30
0
  0
LINE
  8
LAYER1
  6
CONTINUOUS
 62
     7
 10
10.4306
 20
8.4184
 30
0
 11
10.4306
 21
7.9184
 31
0
  0
LINE
  8
LAYER1
  6
CONTINUOUS
 62
     7
 10
10.4306
 20
8.4184
 30
0
 11
10.4306
 21
8.4323
 31
0
  0
ENDBLK
  8
LAYER1
  0
BLOCK
  8
LAYER1
  2
Group3
 70
     0
 10
0
 20
0
 30
0
  0
LINE
  8
LAYER1
  6
CONTINUOUS
 62
     7
 10
10.0694
 20
8.4184
 30
0
 11
10.0694
 21
8.4323
 31
0
  0
LINE
  8
LAYER1
  6
CONTINUOUS
 62
     7
 10
10.6111
 20
8.2795
 30
0
 11
10.4306
 21
8.2795
 31
0
  0
LINE
  8
LAYER1
  6
CONTINUOUS
 62
     7
 10
10.5972
 20
8.2517
 30
0
 11
10.4444
 21
8.2517
 31
0
  0
LINE
  8
LAYER1
  6
CONTINUOUS
 62
     7
 10
10.6111
 20
8.2378
 30
0
 11
10.4306
 21
8.2378
 31
0
  0
LINE
  8
LAYER1
  6
CONTINUOUS
 62
     7
 10
10.5972
 20
8.2239
 30
0
 11
10.4444
 21
8.2239
 31
0
  0
LINE
  8
LAYER1
  6
CONTINUOUS
 62
     7
 10
10.6111
 20
8.2101
 30
0
 11
10.4306
 21
8.2101
 31
0
  0
LINE
  8
LAYER1
  6
CONTINUOUS
 62
     7
 10
10.5972
 20
8.1962
 30
0
 11
10.4444
 21
8.1962
 31
0
  0
LINE
  8
LAYER1
  6
CONTINUOUS
 62
     7
 10
10.6111
 20
8.1823
 30
0
 11
10.4306
 21
8.1823
 31
0
  0
LINE
  8
LAYER1
  6
CONTINUOUS
 62
     7
 10
10.5972
 20
8.1684
 30
0
 11
10.4444
 21
8.1684
 31
0
  0
LINE
  8
LAYER1
  6
CONTINUOUS
 62
     7
 10
10.6111
 20
8.1545
 30
0
 11
10.4306
 21
8.1545
 31
0
  0
LINE
  8
LAYER1
  6
CONTINUOUS
 62
     7
 10
10.5972
 20
8.1267
 30
0
 11
10.4444
 21
8.1267
 31
0
  0
LINE
  8
LAYER1
  6
CONTINUOUS
 62
     7
 10
10.6111
 20
8.1128
 30
0
 11
10.4306
 21
8.1128
 31
0
  0
LINE
  8
LAYER1
  6
CONTINUOUS
 62
     7
 10
10.5972
 20
8.0989
 30
0
 11
10.4444
 21
8.0989
 31
0
  0
LINE
  8
LAYER1
  6
CONTINUOUS
 62
     7
 10
10.6111
 20
8.0851
 30
0
 11
10.4306
 21
8.0851
 31
0
  0
LINE
  8
LAYER1
  6
CONTINUOUS
 62
     7
 10
10.5972
 20
8.0712
 30
0
 11
10.4444
 21
8.0712
 31
0
  0
LINE
  8
LAYER1
  6
CONTINUOUS
 62
     7
 10
10.6111
 20
8.0573
 30
0
 11
10.4306
 21
8.0573
 31
0
  0
LINE
  8
LAYER1
  6
CONTINUOUS
 62
     7
 10
10.5972
 20
8.0434
 30
0
 11
10.4444
 21
8.0434
 31
0
  0
LINE
  8
LAYER1
  6
CONTINUOUS
 62
     7
 10
10.6111
 20
8.0295
 30
0
 11
10.4306
 21
8.0295
 31
0
  0
LINE
  8
LAYER1
  6
CONTINUOUS
 62
     7
 10
10.5972
 20
8.0017
 30
0
 11
10.4444
 21
8.0017
 31
0
  0
LINE
  8
LAYER1
  6
CONTINUOUS
 62
     7
 10
10.6111
 20
7.9878
 30
0
 11
10.4306
 21
7.9878
 31
0
  0
LINE
  8
LAYER1
  6
CONTINUOUS
 62
     7
 10
10.5972
 20
7.9739
 30
0
 11
10.4444
 21
7.9739
 31
0
  0
LINE
  8
LAYER1
  6
CONTINUOUS
 62
     7
 10
10.6111
 20
7.9601
 30
0
 11
10.4306
 21
7.9601
 31
0
  0
LINE
  8
LAYER1
  6
CONTINUOUS
 62
     7
 10
10.5972
 20
7.9462
 30
0
 11
10.4444
 21
7.9462
 31
0
  0
LINE
  8
LAYER1
  6
CONTINUOUS
 62
     7
 10
10.6111
 20
7.9184
 30
0
 11
10.4306
 21
7.9184
 31
0
  0
LINE
  8
LAYER1
  6
CONTINUOUS
 62
     7
 10
10.5972
 20
7.9045
 30
0
 11
10.4444
 21
7.9045
 31
0
  0
LINE
  8
LAYER1
  6
CONTINUOUS
 62
     7
 10
10.4306
 20
7.9184
 30
0
 11
10.4444
 21
7.9045
 31
0
  0
LINE
  8
LAYER1
  6
CONTINUOUS
 62
     7
 10
10.6111
 20
7.9184
 30
0
 11
10.5972
 21
7.9045
 31
0
  0
LINE
  8
LAYER1
  6
CONTINUOUS
 62
     7
 10
10.6111
 20
8.3073
 30
0
 11
10.4306
 21
8.3073
 31
0
  0
LINE
  8
LAYER1
  6
CONTINUOUS
 62
     7
 10
10.5972
 20
8.2934
 30
0
 11
10.4444
 21
8.2934
 31
0
  0
LINE
  8
LAYER1
  6
CONTINUOUS
 62
     7
 10
10.6111
 20
8.3351
 30
0
 11
10.4306
 21
8.3351
 31
0
  0
LINE
  8
LAYER1
  6
CONTINUOUS
 62
     7
 10
10.5972
 20
8.3212
 30
0
 11
10.4444
 21
8.3212
 31
0
  0
LINE
  8
LAYER1
  6
CONTINUOUS
 62
     7
 10
10.6111
 20
8.3628
 30
0
 11
10.4306
 21
8.3628
 31
0
  0
LINE
  8
LAYER1
  6
CONTINUOUS
 62
     7
 10
10.5972
 20
8.3489
 30
0
 11
10.4444
 21
8.3489
 31
0
  0
LINE
  8
LAYER1
  6
CONTINUOUS
 62
     7
 10
10.6111
 20
8.4045
 30
0
 11
10.4306
 21
8.4045
 31
0
  0
LINE
  8
LAYER1
  6
CONTINUOUS
 62
     7
 10
10.5972
 20
8.3767
 30
0
 11
10.4444
 21
8.3767
 31
0
  0
LINE
  8
LAYER1
  6
CONTINUOUS
 62
     7
 10
10.6111
 20
8.4184
 30
0
 11
10.4306
 21
8.4184
 31
0
  0
LINE
  8
LAYER1
  6
CONTINUOUS
 62
     7
 10
10.6111
 20
8.4184
 30
0
 11
10.6111
 21
7.9184
 31
0
  0
INSERT
  8
LAYER1
  2
Group2
 10
0
 20
0
 30
0
  0
ENDBLK
  8
LAYER1
  0
BLOCK
  8
LAYER1
  2
Group4
 70
     0
 10
0
 20
0
 30
0
  0
LINE
  8
LAYER1
  6
CONTINUOUS
 62
     7
 10
10.6111
 20
8.4184
 30
0
 11
10.6111
 21
8.4323
 31
0
  0
LINE
  8
LAYER1
  6
CONTINUOUS
 62
     7
 10
11.125
 20
8.0295
 30
0
 11
10.9583
 21
8.0295
 31
0
  0
LINE
  8
LAYER1
  6
CONTINUOUS
 62
     7
 10
11.1111
 20
8.0017
 30
0
 11
10.9722
 21
8.0017
 31
0
  0
LINE
  8
LAYER1
  6
CONTINUOUS
 62
     7
 10
11.125
 20
7.9878
 30
0
 11
10.9583
 21
7.9878
 31
0
  0
LINE
  8
LAYER1
  6
CONTINUOUS
 62
     7
 10
11.1111
 20
7.9739
 30
0
 11
10.9722
 21
7.9739
 31
0
  0
LINE
  8
LAYER1
  6
CONTINUOUS
 62
     7
 10
11.125
 20
7.9601
 30
0
 11
10.9583
 21
7.9601
 31
0
  0
LINE
  8
LAYER1
  6
CONTINUOUS
 62
     7
 10
11.1111
 20
7.9462
 30
0
 11
10.9722
 21
7.9462
 31
0
  0
LINE
  8
LAYER1
  6
CONTINUOUS
 62
     7
 10
11.125
 20
7.9323
 30
0
 11
10.9583
 21
7.9323
 31
0
  0
LINE
  8
LAYER1
  6
CONTINUOUS
 62
     7
 10
11.1111
 20
7.9184
 30
0
 11
10.9722
 21
7.9184
 31
0
  0
LINE
  8
LAYER1
  6
CONTINUOUS
 62
     7
 10
11.125
 20
7.9045
 30
0
 11
10.9583
 21
7.9045
 31
0
  0
LINE
  8
LAYER1
  6
CONTINUOUS
 62
     7
 10
11.1111
 20
7.8767
 30
0
 11
10.9722
 21
7.8767
 31
0
  0
LINE
  8
LAYER1
  6
CONTINUOUS
 62
     7
 10
11.125
 20
7.8628
 30
0
 11
10.9583
 21
7.8628
 31
0
  0
LINE
  8
LAYER1
  6
CONTINUOUS
 62
     7
 10
11.1111
 20
7.8489
 30
0
 11
10.9722
 21
7.8489
 31
0
  0
LINE
  8
LAYER1
  6
CONTINUOUS
 62
     7
 10
11.125
 20
7.8351
 30
0
 11
10.9583
 21
7.8351
 31
0
  0
LINE
  8
LAYER1
  6
CONTINUOUS
 62
     7
 10
11.1111
 20
7.8212
 30
0
 11
10.9722
 21
7.8212
 31
0
  0
LINE
  8
LAYER1
  6
CONTINUOUS
 62
     7
 10
11.125
 20
7.8073
 30
0
 11
10.9583
 21
7.8073
 31
0
  0
LINE
  8
LAYER1
  6
CONTINUOUS
 62
     7
 10
11.1111
 20
7.7934
 30
0
 11
10.9722
 21
7.7934
 31
0
  0
LINE
  8
LAYER1
  6
CONTINUOUS
 62
     7
 10
11.125
 20
7.7795
 30
0
 11
10.9583
 21
7.7795
 31
0
  0
LINE
  8
LAYER1
  6
CONTINUOUS
 62
     7
 10
11.1111
 20
7.7517
 30
0
 11
10.9722
 21
7.7517
 31
0
  0
LINE
  8
LAYER1
  6
CONTINUOUS
 62
     7
 10
11.125
 20
7.7378
 30
0
 11
10.9583
 21
7.7378
 31
0
  0
LINE
  8
LAYER1
  6
CONTINUOUS
 62
     7
 10
11.1111
 20
7.7239
 30
0
 11
10.9722
 21
7.7239
 31
0
  0
LINE
  8
LAYER1
  6
CONTINUOUS
 62
     7
 10
11.125
 20
7.7101
 30
0
 11
10.9583
 21
7.7101
 31
0
  0
LINE
  8
LAYER1
  6
CONTINUOUS
 62
     7
 10
11.1111
 20
7.6962
 30
0
 11
10.9722
 21
7.6962
 31
0
  0
LINE
  8
LAYER1
  6
CONTINUOUS
 62
     7
 10
11.125
 20
7.6684
 30
0
 11
10.9583
 21
7.6684
 31
0
  0
LINE
  8
LAYER1
  6
CONTINUOUS
 62
     7
 10
11.1111
 20
7.6545
 30
0
 11
10.9722
 21
7.6545
 31
0
  0
LINE
  8
LAYER1
  6
CONTINUOUS
 62
     7
 10
10.9583
 20
7.6684
 30
0
 11
10.9722
 21
7.6545
 31
0
  0
LINE
  8
LAYER1
  6
CONTINUOUS
 62
     7
 10
11.125
 20
7.6684
 30
0
 11
11.1111
 21
7.6545
 31
0
  0
LINE
  8
LAYER1
  6
CONTINUOUS
 62
     7
 10
11.125
 20
8.0573
 30
0
 11
10.9583
 21
8.0573
 31
0
  0
LINE
  8
LAYER1
  6
CONTINUOUS
 62
     7
 10
11.1111
 20
8.0434
 30
0
 11
10.9722
 21
8.0434
 31
0
  0
LINE
  8
LAYER1
  6
CONTINUOUS
 62
     7
 10
11.125
 20
8.0851
 30
0
 11
10.9583
 21
8.0851
 31
0
  0
LINE
  8
LAYER1
  6
CONTINUOUS
 62
     7
 10
11.1111
 20
8.0712
 30
0
 11
10.9722
 21
8.0712
 31
0
  0
LINE
  8
LAYER1
  6
CONTINUOUS
 62
     7
 10
11.125
 20
8.1128
 30
0
 11
10.9583
 21
8.1128
 31
0
  0
LINE
  8
LAYER1
  6
CONTINUOUS
 62
     7
 10
11.1111
 20
8.0989
 30
0
 11
10.9722
 21
8.0989
 31
0
  0
LINE
  8
LAYER1
  6
CONTINUOUS
 62
     7
 10
11.125
 20
8.1545
 30
0
 11
10.9583
 21
8.1545
 31
0
  0
LINE
  8
LAYER1
  6
CONTINUOUS
 62
     7
 10
11.1111
 20
8.1267
 30
0
 11
10.9722
 21
8.1267
 31
0
  0
LINE
  8
LAYER1
  6
CONTINUOUS
 62
     7
 10
11.125
 20
8.1823
 30
0
 11
10.9583
 21
8.1823
 31
0
  0
LINE
  8
LAYER1
  6
CONTINUOUS
 62
     7
 10
11.1111
 20
8.1684
 30
0
 11
10.9722
 21
8.1684
 31
0
  0
LINE
  8
LAYER1
  6
CONTINUOUS
 62
     7
 10
11.125
 20
8.2101
 30
0
 11
10.9583
 21
8.2101
 31
0
  0
LINE
  8
LAYER1
  6
CONTINUOUS
 62
     7
 10
11.1111
 20
8.1962
 30
0
 11
10.9722
 21
8.1962
 31
0
  0
LINE
  8
LAYER1
  6
CONTINUOUS
 62
     7
 10
11.125
 20
8.2378
 30
0
 11
10.9583
 21
8.2378
 31
0
  0
LINE
  8
LAYER1
  6
CONTINUOUS
 62
     7
 10
11.1111
 20
8.2239
 30
0
 11
10.9722
 21
8.2239
 31
0
  0
LINE
  8
LAYER1
  6
CONTINUOUS
 62
     7
 10
11.125
 20
8.2795
 30
0
 11
10.9583
 21
8.2795
 31
0
  0
LINE
  8
LAYER1
  6
CONTINUOUS
 62
     7
 10
11.1111
 20
8.2517
 30
0
 11
10.9722
 21
8.2517
 31
0
  0
LINE
  8
LAYER1
  6
CONTINUOUS
 62
     7
 10
11.125
 20
8.3073
 30
0
 11
10.9583
 21
8.3073
 31
0
  0
LINE
  8
LAYER1
  6
CONTINUOUS
 62
     7
 10
11.1111
 20
8.2934
 30
0
 11
10.9722
 21
8.2934
 31
0
  0
LINE
  8
LAYER1
  6
CONTINUOUS
 62
     7
 10
11.125
 20
8.3351
 30
0
 11
10.9583
 21
8.3351
 31
0
  0
LINE
  8
LAYER1
  6
CONTINUOUS
 62
     7
 10
11.1111
 20
8.3212
 30
0
 11
10.9722
 21
8.3212
 31
0
  0
LINE
  8
LAYER1
  6
CONTINUOUS
 62
     7
 10
11.125
 20
8.3628
 30
0
 11
10.9583
 21
8.3628
 31
0
  0
LINE
  8
LAYER1
  6
CONTINUOUS
 62
     7
 10
11.1111
 20
8.3489
 30
0
 11
10.9722
 21
8.3489
 31
0
  0
LINE
  8
LAYER1
  6
CONTINUOUS
 62
     7
 10
11.125
 20
8.4045
 30
0
 11
10.9583
 21
8.4045
 31
0
  0
LINE
  8
LAYER1
  6
CONTINUOUS
 62
     7
 10
11.1111
 20
8.3767
 30
0
 11
10.9722
 21
8.3767
 31
0
  0
LINE
  8
LAYER1
  6
CONTINUOUS
 62
     7
 10
11.125
 20
8.4184
 30
0
 11
10.9583
 21
8.4184
 31
0
  0
LINE
  8
LAYER1
  6
CONTINUOUS
 62
     7
 10
11.125
 20
8.4184
 30
0
 11
11.125
 21
7.6684
 31
0
  0
LINE
  8
LAYER1
  6
CONTINUOUS
 62
     7
 10
10.9583
 20
8.4184
 30
0
 11
10.9583
 21
7.6684
 31
0
  0
LINE
  8
LAYER1
  6
CONTINUOUS
 62
     7
 10
10.9583
 20
8.4184
 30
0
 11
10.9444
 21
8.4323
 31
0
  0
ENDBLK
  8
LAYER1
  0
BLOCK
  8
LAYER1
  2
Group5
 70
     0
 10
0
 20
0
 30
0
  0
LINE
  8
LAYER1
  6
CONTINUOUS
 62
     7
 10
11.125
 20
8.4184
 30
0
 11
11.1389
 21
8.4323
 31
0
  0
LINE
  8
LAYER1
  6
CONTINUOUS
 62
     7
 10
11.6806
 20
7.7795
 30
0
 11
11.5139
 21
7.7795
 31
0
  0
LINE
  8
LAYER1
  6
CONTINUOUS
 62
     7
 10
11.6667
 20
7.7517
 30
0
 11
11.5278
 21
7.7517
 31
0
  0
LINE
  8
LAYER1
  6
CONTINUOUS
 62
     7
 10
11.6806
 20
7.7378
 30
0
 11
11.5139
 21
7.7378
 31
0
  0
LINE
  8
LAYER1
  6
CONTINUOUS
 62
     7
 10
11.6667
 20
7.7239
 30
0
 11
11.5278
 21
7.7239
 31
0
  0
LINE
  8
LAYER1
  6
CONTINUOUS
 62
     7
 10
11.6806
 20
7.7101
 30
0
 11
11.5139
 21
7.7101
 31
0
  0
LINE
  8
LAYER1
  6
CONTINUOUS
 62
     7
 10
11.6667
 20
7.6962
 30
0
 11
11.5278
 21
7.6962
 31
0
  0
LINE
  8
LAYER1
  6
CONTINUOUS
 62
     7
 10
11.6806
 20
7.6823
 30
0
 11
11.5139
 21
7.6823
 31
0
  0
LINE
  8
LAYER1
  6
CONTINUOUS
 62
     7
 10
11.6667
 20
7.6684
 30
0
 11
11.5278
 21
7.6684
 31
0
  0
LINE
  8
LAYER1
  6
CONTINUOUS
 62
     7
 10
11.6806
 20
7.6545
 30
0
 11
11.5139
 21
7.6545
 31
0
  0
LINE
  8
LAYER1
  6
CONTINUOUS
 62
     7
 10
11.6667
 20
7.6267
 30
0
 11
11.5278
 21
7.6267
 31
0
  0
LINE
  8
LAYER1
  6
CONTINUOUS
 62
     7
 10
11.6806
 20
7.6128
 30
0
 11
11.5139
 21
7.6128
 31
0
  0
LINE
  8
LAYER1
  6
CONTINUOUS
 62
     7
 10
11.6667
 20
7.5989
 30
0
 11
11.5278
 21
7.5989
 31
0
  0
LINE
  8
LAYER1
  6
CONTINUOUS
 62
     7
 10
11.6806
 20
7.5851
 30
0
 11
11.5139
 21
7.5851
 31
0
  0
LINE
  8
LAYER1
  6
CONTINUOUS
 62
     7
 10
11.6667
 20
7.5712
 30
0
 11
11.5278
 21
7.5712
 31
0
  0
LINE
  8
LAYER1
  6
CONTINUOUS
 62
     7
 10
11.6806
 20
7.5573
 30
0
 11
11.5139
 21
7.5573
 31
0
  0
LINE
  8
LAYER1
  6
CONTINUOUS
 62
     7
 10
11.6667
 20
7.5434
 30
0
 11
11.5278
 21
7.5434
 31
0
  0
LINE
  8
LAYER1
  6
CONTINUOUS
 62
     7
 10
11.6806
 20
7.5295
 30
0
 11
11.5139
 21
7.5295
 31
0
  0
LINE
  8
LAYER1
  6
CONTINUOUS
 62
     7
 10
11.6667
 20
7.5017
 30
0
 11
11.5278
 21
7.5017
 31
0
  0
LINE
  8
LAYER1
  6
CONTINUOUS
 62
     7
 10
11.6806
 20
7.4878
 30
0
 11
11.5139
 21
7.4878
 31
0
  0
LINE
  8
LAYER1
  6
CONTINUOUS
 62
     7
 10
11.6667
 20
7.4739
 30
0
 11
11.5278
 21
7.4739
 31
0
  0
LINE
  8
LAYER1
  6
CONTINUOUS
 62
     7
 10
11.6806
 20
7.4601
 30
0
 11
11.5139
 21
7.4601
 31
0
  0
LINE
  8
LAYER1
  6
CONTINUOUS
 62
     7
 10
11.6667
 20
7.4462
 30
0
 11
11.5278
 21
7.4462
 31
0
  0
LINE
  8
LAYER1
  6
CONTINUOUS
 62
     7
 10
11.6806
 20
7.4184
 30
0
 11
11.5139
 21
7.4184
 31
0
  0
LINE
  8
LAYER1
  6
CONTINUOUS
 62
     7
 10
11.6667
 20
7.4045
 30
0
 11
11.5278
 21
7.4045
 31
0
  0
LINE
  8
LAYER1
  6
CONTINUOUS
 62
     7
 10
11.5139
 20
7.4184
 30
0
 11
11.5278
 21
7.4045
 31
0
  0
LINE
  8
LAYER1
  6
CONTINUOUS
 62
     7
 10
11.6806
 20
7.4184
 30
0
 11
11.6667
 21
7.4045
 31
0
  0
LINE
  8
LAYER1
  6
CONTINUOUS
 62
     7
 10
11.6806
 20
7.8073
 30
0
 11
11.5139
 21
7.8073
 31
0
  0
LINE
  8
LAYER1
  6
CONTINUOUS
 62
     7
 10
11.6667
 20
7.7934
 30
0
 11
11.5278
 21
7.7934
 31
0
  0
LINE
  8
LAYER1
  6
CONTINUOUS
 62
     7
 10
11.6806
 20
7.8351
 30
0
 11
11.5139
 21
7.8351
 31
0
  0
LINE
  8
LAYER1
  6
CONTINUOUS
 62
     7
 10
11.6667
 20
7.8212
 30
0
 11
11.5278
 21
7.8212
 31
0
  0
LINE
  8
LAYER1
  6
CONTINUOUS
 62
     7
 10
11.6806
 20
7.8628
 30
0
 11
11.5139
 21
7.8628
 31
0
  0
LINE
  8
LAYER1
  6
CONTINUOUS
 62
     7
 10
11.6667
 20
7.8489
 30
0
 11
11.5278
 21
7.8489
 31
0
  0
LINE
  8
LAYER1
  6
CONTINUOUS
 62
     7
 10
11.6806
 20
7.9045
 30
0
 11
11.5139
 21
7.9045
 31
0
  0
LINE
  8
LAYER1
  6
CONTINUOUS
 62
     7
 10
11.6667
 20
7.8767
 30
0
 11
11.5278
 21
7.8767
 31
0
  0
LINE
  8
LAYER1
  6
CONTINUOUS
 62
     7
 10
11.6806
 20
7.9323
 30
0
 11
11.5139
 21
7.9323
 31
0
  0
LINE
  8
LAYER1
  6
CONTINUOUS
 62
     7
 10
11.6667
 20
7.9184
 30
0
 11
11.5278
 21
7.9184
 31
0
  0
LINE
  8
LAYER1
  6
CONTINUOUS
 62
     7
 10
11.6806
 20
7.9601
 30
0
 11
11.5139
 21
7.9601
 31
0
  0
LINE
  8
LAYER1
  6
CONTINUOUS
 62
     7
 10
11.6667
 20
7.9462
 30
0
 11
11.5278
 21
7.9462
 31
0
  0
LINE
  8
LAYER1
  6
CONTINUOUS
 62
     7
 10
11.6806
 20
7.9878
 30
0
 11
11.5139
 21
7.9878
 31
0
  0
LINE
  8
LAYER1
  6
CONTINUOUS
 62
     7
 10
11.6667
 20
7.9739
 30
0
 11
11.5278
 21
7.9739
 31
0
  0
LINE
  8
LAYER1
  6
CONTINUOUS
 62
     7
 10
11.6806
 20
8.0295
 30
0
 11
11.5139
 21
8.0295
 31
0
  0
LINE
  8
LAYER1
  6
CONTINUOUS
 62
     7
 10
11.6667
 20
8.0017
 30
0
 11
11.5278
 21
8.0017
 31
0
  0
LINE
  8
LAYER1
  6
CONTINUOUS
 62
     7
 10
11.6806
 20
8.0573
 30
0
 11
11.5139
 21
8.0573
 31
0
  0
LINE
  8
LAYER1
  6
CONTINUOUS
 62
     7
 10
11.6667
 20
8.0434
 30
0
 11
11.5278
 21
8.0434
 31
0
  0
LINE
  8
LAYER1
  6
CONTINUOUS
 62
     7
 10
11.6806
 20
8.0851
 30
0
 11
11.5139
 21
8.0851
 31
0
  0
LINE
  8
LAYER1
  6
CONTINUOUS
 62
     7
 10
11.6667
 20
8.0712
 30
0
 11
11.5278
 21
8.0712
 31
0
  0
LINE
  8
LAYER1
  6
CONTINUOUS
 62
     7
 10
11.6806
 20
8.1128
 30
0
 11
11.5139
 21
8.1128
 31
0
  0
LINE
  8
LAYER1
  6
CONTINUOUS
 62
     7
 10
11.6667
 20
8.0989
 30
0
 11
11.5278
 21
8.0989
 31
0
  0
LINE
  8
LAYER1
  6
CONTINUOUS
 62
     7
 10
11.6806
 20
8.1545
 30
0
 11
11.5139
 21
8.1545
 31
0
  0
LINE
  8
LAYER1
  6
CONTINUOUS
 62
     7
 10
11.6667
 20
8.1267
 30
0
 11
11.5278
 21
8.1267
 31
0
  0
LINE
  8
LAYER1
  6
CONTINUOUS
 62
     7
 10
11.6806
 20
8.1823
 30
0
 11
11.5139
 21
8.1823
 31
0
  0
LINE
  8
LAYER1
  6
CONTINUOUS
 62
     7
 10
11.6667
 20
8.1684
 30
0
 11
11.5278
 21
8.1684
 31
0
  0
LINE
  8
LAYER1
  6
CONTINUOUS
 62
     7
 10
11.6806
 20
8.2101
 30
0
 11
11.5139
 21
8.2101
 31
0
  0
LINE
  8
LAYER1
  6
CONTINUOUS
 62
     7
 10
11.6667
 20
8.1962
 30
0
 11
11.5278
 21
8.1962
 31
0
  0
LINE
  8
LAYER1
  6
CONTINUOUS
 62
     7
 10
11.6806
 20
8.2378
 30
0
 11
11.5139
 21
8.2378
 31
0
  0
LINE
  8
LAYER1
  6
CONTINUOUS
 62
     7
 10
11.6667
 20
8.2239
 30
0
 11
11.5278
 21
8.2239
 31
0
  0
LINE
  8
LAYER1
  6
CONTINUOUS
 62
     7
 10
11.6806
 20
8.2795
 30
0
 11
11.5139
 21
8.2795
 31
0
  0
LINE
  8
LAYER1
  6
CONTINUOUS
 62
     7
 10
11.6667
 20
8.2517
 30
0
 11
11.5278
 21
8.2517
 31
0
  0
LINE
  8
LAYER1
  6
CONTINUOUS
 62
     7
 10
11.6806
 20
8.3073
 30
0
 11
11.5139
 21
8.3073
 31
0
  0
LINE
  8
LAYER1
  6
CONTINUOUS
 62
     7
 10
11.6667
 20
8.2934
 30
0
 11
11.5278
 21
8.2934
 31
0
  0
LINE
  8
LAYER1
  6
CONTINUOUS
 62
     7
 10
11.6806
 20
8.3351
 30
0
 11
11.5139
 21
8.3351
 31
0
  0
LINE
  8
LAYER1
  6
CONTINUOUS
 62
     7
 10
11.6667
 20
8.3212
 30
0
 11
11.5278
 21
8.3212
 31
0
  0
LINE
  8
LAYER1
  6
CONTINUOUS
 62
     7
 10
11.6806
 20
8.3628
 30
0
 11
11.5139
 21
8.3628
 31
0
  0
LINE
  8
LAYER1
  6
CONTINUOUS
 62
     7
 10
11.6667
 20
8.3489
 30
0
 11
11.5278
 21
8.3489
 31
0
  0
LINE
  8
LAYER1
  6
CONTINUOUS
 62
     7
 10
11.6806
 20
8.4045
 30
0
 11
11.5139
 21
8.4045
 31
0
  0
LINE
  8
LAYER1
  6
CONTINUOUS
 62
     7
 10
11.6667
 20
8.3906
 30
0
 11
11.5278
 21
8.3906
 31
0
  0
LINE
  8
LAYER1
  6
CONTINUOUS
 62
     7
 10
11.6806
 20
8.4184
 30
0
 11
11.5139
 21
8.4184
 31
0
  0
LINE
  8
LAYER1
  6
CONTINUOUS
 62
     7
 10
11.6806
 20
8.4184
 30
0
 11
11.6806
 21
7.4184
 31
0
  0
LINE
  8
LAYER1
  6
CONTINUOUS
 62
     7
 10
11.5139
 20
8.4184
 30
0
 11
11.5139
 21
7.4184
 31
0
  0
LINE
  8
LAYER1
  6
CONTINUOUS
 62
     7
 10
11.5139
 20
8.4184
 30
0
 11
11.5
 21
8.4323
 31
0
  0
ENDBLK
  8
LAYER1
  0
BLOCK
  8
LAYER1
  2
Group6
 70
     0
 10
0
 20
0
 30
0
  0
LINE
  8
LAYER1
  6
CONTINUOUS
 62
     7
 10
11.6806
 20
8.4184
 30
0
 11
11.6944
 21
8.4323
 31
0
  0
LINE
  8
LAYER1
  6
CONTINUOUS
 62
     7
 10
12.2917
 20
7.5295
 30
0
 11
12.1111
 21
7.5295
 31
0
  0
LINE
  8
LAYER1
  6
CONTINUOUS
 62
     7
 10
12.2639
 20
7.5017
 30
0
 11
12.125
 21
7.5017
 31
0
  0
LINE
  8
LAYER1
  6
CONTINUOUS
 62
     7
 10
12.2917
 20
7.4878
 30
0
 11
12.1111
 21
7.4878
 31
0
  0
LINE
  8
LAYER1
  6
CONTINUOUS
 62
     7
 10
12.2639
 20
7.4739
 30
0
 11
12.125
 21
7.4739
 31
0
  0
LINE
  8
LAYER1
  6
CONTINUOUS
 62
     7
 10
12.2917
 20
7.4601
 30
0
 11
12.1111
 21
7.4601
 31
0
  0
LINE
  8
LAYER1
  6
CONTINUOUS
 62
     7
 10
12.2639
 20
7.4462
 30
0
 11
12.125
 21
7.4462
 31
0
  0
LINE
  8
LAYER1
  6
CONTINUOUS
 62
     7
 10
12.2917
 20
7.4323
 30
0
 11
12.1111
 21
7.4323
 31
0
  0
LINE
  8
LAYER1
  6
CONTINUOUS
 62
     7
 10
12.2639
 20
7.4184
 30
0
 11
12.125
 21
7.4184
 31
0
  0
LINE
  8
LAYER1
  6
CONTINUOUS
 62
     7
 10
12.2917
 20
7.4045
 30
0
 11
12.1111
 21
7.4045
 31
0
  0
LINE
  8
LAYER1
  6
CONTINUOUS
 62
     7
 10
12.2639
 20
7.3767
 30
0
 11
12.125
 21
7.3767
 31
0
  0
LINE
  8
LAYER1
  6
CONTINUOUS
 62
     7
 10
12.2917
 20
7.3628
 30
0
 11
12.1111
 21
7.3628
 31
0
  0
LINE
  8
LAYER1
  6
CONTINUOUS
 62
     7
 10
12.2639
 20
7.3489
 30
0
 11
12.125
 21
7.3489
 31
0
  0
LINE
  8
LAYER1
  6
CONTINUOUS
 62
     7
 10
12.2917
 20
7.3351
 30
0
 11
12.1111
 21
7.3351
 31
0
  0
LINE
  8
LAYER1
  6
CONTINUOUS
 62
     7
 10
12.2639
 20
7.3212
 30
0
 11
12.125
 21
7.3212
 31
0
  0
LINE
  8
LAYER1
  6
CONTINUOUS
 62
     7
 10
12.2917
 20
7.3073
 30
0
 11
12.1111
 21
7.3073
 31
0
  0
LINE
  8
LAYER1
  6
CONTINUOUS
 62
     7
 10
12.2639
 20
7.2934
 30
0
 11
12.125
 21
7.2934
 31
0
  0
LINE
  8
LAYER1
  6
CONTINUOUS
 62
     7
 10
12.2917
 20
7.2795
 30
0
 11
12.1111
 21
7.2795
 31
0
  0
LINE
  8
LAYER1
  6
CONTINUOUS
 62
     7
 10
12.2639
 20
7.2517
 30
0
 11
12.125
 21
7.2517
 31
0
  0
LINE
  8
LAYER1
  6
CONTINUOUS
 62
     7
 10
12.2917
 20
7.2378
 30
0
 11
12.1111
 21
7.2378
 31
0
  0
LINE
  8
LAYER1
  6
CONTINUOUS
 62
     7
 10
12.2639
 20
7.2239
 30
0
 11
12.125
 21
7.2239
 31
0
  0
LINE
  8
LAYER1
  6
CONTINUOUS
 62
     7
 10
12.2917
 20
7.2101
 30
0
 11
12.1111
 21
7.2101
 31
0
  0
LINE
  8
LAYER1
  6
CONTINUOUS
 62
     7
 10
12.2639
 20
7.1962
 30
0
 11
12.125
 21
7.1962
 31
0
  0
LINE
  8
LAYER1
  6
CONTINUOUS
 62
     7
 10
12.2917
 20
7.1684
 30
0
 11
12.1111
 21
7.1684
 31
0
  0
LINE
  8
LAYER1
  6
CONTINUOUS
 62
     7
 10
12.2639
 20
7.1545
 30
0
 11
12.125
 21
7.1545
 31
0
  0
LINE
  8
LAYER1
  6
CONTINUOUS
 62
     7
 10
12.1111
 20
7.1684
 30
0
 11
12.125
 21
7.1545
 31
0
  0
LINE
  8
LAYER1
  6
CONTINUOUS
 62
     7
 10
12.2917
 20
7.1684
 30
0
 11
12.2639
 21
7.1545
 31
0
  0
LINE
  8
LAYER1
  6
CONTINUOUS
 62
     7
 10
12.2917
 20
7.5573
 30
0
 11
12.1111
 21
7.5573
 31
0
  0
LINE
  8
LAYER1
  6
CONTINUOUS
 62
     7
 10
12.2639
 20
7.5434
 30
0
 11
12.125
 21
7.5434
 31
0
  0
LINE
  8
LAYER1
  6
CONTINUOUS
 62
     7
 10
12.2917
 20
7.5851
 30
0
 11
12.1111
 21
7.5851
 31
0
  0
LINE
  8
LAYER1
  6
CONTINUOUS
 62
     7
 10
12.2639
 20
7.5712
 30
0
 11
12.125
 21
7.5712
 31
0
  0
LINE
  8
LAYER1
  6
CONTINUOUS
 62
     7
 10
12.2917
 20
7.6128
 30
0
 11
12.1111
 21
7.6128
 31
0
  0
LINE
  8
LAYER1
  6
CONTINUOUS
 62
     7
 10
12.2639
 20
7.5989
 30
0
 11
12.125
 21
7.5989
 31
0
  0
LINE
  8
LAYER1
  6
CONTINUOUS
 62
     7
 10
12.2917
 20
7.6545
 30
0
 11
12.1111
 21
7.6545
 31
0
  0
LINE
  8
LAYER1
  6
CONTINUOUS
 62
     7
 10
12.2639
 20
7.6267
 30
0
 11
12.125
 21
7.6267
 31
0
  0
LINE
  8
LAYER1
  6
CONTINUOUS
 62
     7
 10
12.2917
 20
7.6823
 30
0
 11
12.1111
 21
7.6823
 31
0
  0
LINE
  8
LAYER1
  6
CONTINUOUS
 62
     7
 10
12.2639
 20
7.6684
 30
0
 11
12.125
 21
7.6684
 31
0
  0
LINE
  8
LAYER1
  6
CONTINUOUS
 62
     7
 10
12.2917
 20
7.7101
 30
0
 11
12.1111
 21
7.7101
 31
0
  0
LINE
  8
LAYER1
  6
CONTINUOUS
 62
     7
 10
12.2639
 20
7.6962
 30
0
 11
12.125
 21
7.6962
 31
0
  0
LINE
  8
LAYER1
  6
CONTINUOUS
 62
     7
 10
12.2917
 20
7.7378
 30
0
 11
12.1111
 21
7.7378
 31
0
  0
LINE
  8
LAYER1
  6
CONTINUOUS
 62
     7
 10
12.2639
 20
7.7239
 30
0
 11
12.125
 21
7.7239
 31
0
  0
LINE
  8
LAYER1
  6
CONTINUOUS
 62
     7
 10
12.2917
 20
7.7795
 30
0
 11
12.1111
 21
7.7795
 31
0
  0
LINE
  8
LAYER1
  6
CONTINUOUS
 62
     7
 10
12.2639
 20
7.7517
 30
0
 11
12.125
 21
7.7517
 31
0
  0
LINE
  8
LAYER1
  6
CONTINUOUS
 62
     7
 10
12.2917
 20
7.8073
 30
0
 11
12.1111
 21
7.8073
 31
0
  0
LINE
  8
LAYER1
  6
CONTINUOUS
 62
     7
 10
12.2639
 20
7.7934
 30
0
 11
12.125
 21
7.7934
 31
0
  0
LINE
  8
LAYER1
  6
CONTINUOUS
 62
     7
 10
12.2917
 20
7.8351
 30
0
 11
12.1111
 21
7.8351
 31
0
  0
LINE
  8
LAYER1
  6
CONTINUOUS
 62
     7
 10
12.2639
 20
7.8212
 30
0
 11
12.125
 21
7.8212
 31
0
  0
LINE
  8
LAYER1
  6
CONTINUOUS
 62
     7
 10
12.2917
 20
7.8628
 30
0
 11
12.1111
 21
7.8628
 31
0
  0
LINE
  8
LAYER1
  6
CONTINUOUS
 62
     7
 10
12.2639
 20
7.8489
 30
0
 11
12.125
 21
7.8489
 31
0
  0
LINE
  8
LAYER1
  6
CONTINUOUS
 62
     7
 10
12.2917
 20
7.9045
 30
0
 11
12.1111
 21
7.9045
 31
0
  0
LINE
  8
LAYER1
  6
CONTINUOUS
 62
     7
 10
12.2639
 20
7.8767
 30
0
 11
12.125
 21
7.8767
 31
0
  0
LINE
  8
LAYER1
  6
CONTINUOUS
 62
     7
 10
12.2917
 20
7.9323
 30
0
 11
12.1111
 21
7.9323
 31
0
  0
LINE
  8
LAYER1
  6
CONTINUOUS
 62
     7
 10
12.2639
 20
7.9184
 30
0
 11
12.125
 21
7.9184
 31
0
  0
LINE
  8
LAYER1
  6
CONTINUOUS
 62
     7
 10
12.2917
 20
7.9601
 30
0
 11
12.1111
 21
7.9601
 31
0
  0
LINE
  8
LAYER1
  6
CONTINUOUS
 62
     7
 10
12.2639
 20
7.9462
 30
0
 11
12.125
 21
7.9462
 31
0
  0
LINE
  8
LAYER1
  6
CONTINUOUS
 62
     7
 10
12.2917
 20
7.9878
 30
0
 11
12.1111
 21
7.9878
 31
0
  0
LINE
  8
LAYER1
  6
CONTINUOUS
 62
     7
 10
12.2639
 20
7.9739
 30
0
 11
12.125
 21
7.9739
 31
0
  0
LINE
  8
LAYER1
  6
CONTINUOUS
 62
     7
 10
12.2917
 20
8.0295
 30
0
 11
12.1111
 21
8.0295
 31
0
  0
LINE
  8
LAYER1
  6
CONTINUOUS
 62
     7
 10
12.2639
 20
8.0017
 30
0
 11
12.125
 21
8.0017
 31
0
  0
LINE
  8
LAYER1
  6
CONTINUOUS
 62
     7
 10
12.2917
 20
8.0573
 30
0
 11
12.1111
 21
8.0573
 31
0
  0
LINE
  8
LAYER1
  6
CONTINUOUS
 62
     7
 10
12.2639
 20
8.0434
 30
0
 11
12.125
 21
8.0434
 31
0
  0
LINE
  8
LAYER1
  6
CONTINUOUS
 62
     7
 10
12.2917
 20
8.0851
 30
0
 11
12.1111
 21
8.0851
 31
0
  0
LINE
  8
LAYER1
  6
CONTINUOUS
 62
     7
 10
12.2639
 20
8.0712
 30
0
 11
12.125
 21
8.0712
 31
0
  0
LINE
  8
LAYER1
  6
CONTINUOUS
 62
     7
 10
12.2917
 20
8.1128
 30
0
 11
12.1111
 21
8.1128
 31
0
  0
LINE
  8
LAYER1
  6
CONTINUOUS
 62
     7
 10
12.2639
 20
8.0989
 30
0
 11
12.125
 21
8.0989
 31
0
  0
LINE
  8
LAYER1
  6
CONTINUOUS
 62
     7
 10
12.2917
 20
8.1545
 30
0
 11
12.1111
 21
8.1545
 31
0
  0
LINE
  8
LAYER1
  6
CONTINUOUS
 62
     7
 10
12.2639
 20
8.1406
 30
0
 11
12.125
 21
8.1406
 31
0
  0
LINE
  8
LAYER1
  6
CONTINUOUS
 62
     7
 10
12.2917
 20
8.1823
 30
0
 11
12.1111
 21
8.1823
 31
0
  0
LINE
  8
LAYER1
  6
CONTINUOUS
 62
     7
 10
12.2639
 20
8.1684
 30
0
 11
12.125
 21
8.1684
 31
0
  0
LINE
  8
LAYER1
  6
CONTINUOUS
 62
     7
 10
12.2917
 20
8.2101
 30
0
 11
12.1111
 21
8.2101
 31
0
  0
LINE
  8
LAYER1
  6
CONTINUOUS
 62
     7
 10
12.2639
 20
8.1962
 30
0
 11
12.125
 21
8.1962
 31
0
  0
LINE
  8
LAYER1
  6
CONTINUOUS
 62
     7
 10
12.2917
 20
8.2378
 30
0
 11
12.1111
 21
8.2378
 31
0
  0
LINE
  8
LAYER1
  6
CONTINUOUS
 62
     7
 10
12.2639
 20
8.2239
 30
0
 11
12.125
 21
8.2239
 31
0
  0
LINE
  8
LAYER1
  6
CONTINUOUS
 62
     7
 10
12.2917
 20
8.2795
 30
0
 11
12.1111
 21
8.2795
 31
0
  0
LINE
  8
LAYER1
  6
CONTINUOUS
 62
     7
 10
12.2639
 20
8.2656
 30
0
 11
12.125
 21
8.2656
 31
0
  0
LINE
  8
LAYER1
  6
CONTINUOUS
 62
     7
 10
12.2917
 20
8.3073
 30
0
 11
12.1111
 21
8.3073
 31
0
  0
LINE
  8
LAYER1
  6
CONTINUOUS
 62
     7
 10
12.2639
 20
8.2934
 30
0
 11
12.125
 21
8.2934
 31
0
  0
LINE
  8
LAYER1
  6
CONTINUOUS
 62
     7
 10
12.2917
 20
8.3351
 30
0
 11
12.1111
 21
8.3351
 31
0
  0
LINE
  8
LAYER1
  6
CONTINUOUS
 62
     7
 10
12.2639
 20
8.3212
 30
0
 11
12.125
 21
8.3212
 31
0
  0
LINE
  8
LAYER1
  6
CONTINUOUS
 62
     7
 10
12.2917
 20
8.3628
 30
0
 11
12.1111
 21
8.3628
 31
0
  0
LINE
  8
LAYER1
  6
CONTINUOUS
 62
     7
 10
12.2639
 20
8.3489
 30
0
 11
12.125
 21
8.3489
 31
0
  0
LINE
  8
LAYER1
  6
CONTINUOUS
 62
     7
 10
12.2917
 20
8.4045
 30
0
 11
12.1111
 21
8.4045
 31
0
  0
LINE
  8
LAYER1
  6
CONTINUOUS
 62
     7
 10
12.2639
 20
8.3906
 30
0
 11
12.125
 21
8.3906
 31
0
  0
LINE
  8
LAYER1
  6
CONTINUOUS
 62
     7
 10
12.2917
 20
8.4184
 30
0
 11
12.1111
 21
8.4184
 31
0
  0
LINE
  8
LAYER1
  6
CONTINUOUS
 62
     7
 10
12.2917
 20
8.4184
 30
0
 11
12.2917
 21
7.1684
 31
0
  0
LINE
  8
LAYER1
  6
CONTINUOUS
 62
     7
 10
12.1111
 20
8.4184
 30
0
 11
12.1111
 21
7.1684
 31
0
  0
LINE
  8
LAYER1
  6
CONTINUOUS
 62
     7
 10
12.1111
 20
8.4184
 30
0
 11
12.1111
 21
8.4323
 31
0
  0
ENDBLK
  8
LAYER1
  0
BLOCK
  8
LAYER1
  2
Group7
 70
     0
 10
0
 20
0
 30
0
  0
LINE
  8
LAYER1
  6
CONTINUOUS
 62
     7
 10
12.2917
 20
8.4184
 30
0
 11
12.2917
 21
8.4323
 31
0
  0
LINE
  8
LAYER1
  6
CONTINUOUS
 62
     7
 10
12.8472
 20
7.2795
 30
0
 11
12.6806
 21
7.2795
 31
0
  0
LINE
  8
LAYER1
  6
CONTINUOUS
 62
     7
 10
12.8333
 20
7.2517
 30
0
 11
12.6944
 21
7.2517
 31
0
  0
LINE
  8
LAYER1
  6
CONTINUOUS
 62
     7
 10
12.8472
 20
7.2378
 30
0
 11
12.6806
 21
7.2378
 31
0
  0
LINE
  8
LAYER1
  6
CONTINUOUS
 62
     7
 10
12.8333
 20
7.2239
 30
0
 11
12.6944
 21
7.2239
 31
0
  0
LINE
  8
LAYER1
  6
CONTINUOUS
 62
     7
 10
12.8472
 20
7.2101
 30
0
 11
12.6806
 21
7.2101
 31
0
  0
LINE
  8
LAYER1
  6
CONTINUOUS
 62
     7
 10
12.8333
 20
7.1962
 30
0
 11
12.6944
 21
7.1962
 31
0
  0
LINE
  8
LAYER1
  6
CONTINUOUS
 62
     7
 10
12.8472
 20
7.1823
 30
0
 11
12.6806
 21
7.1823
 31
0
  0
LINE
  8
LAYER1
  6
CONTINUOUS
 62
     7
 10
12.8333
 20
7.1684
 30
0
 11
12.6944
 21
7.1684
 31
0
  0
LINE
  8
LAYER1
  6
CONTINUOUS
 62
     7
 10
12.8472
 20
7.1545
 30
0
 11
12.6806
 21
7.1545
 31
0
  0
LINE
  8
LAYER1
  6
CONTINUOUS
 62
     7
 10
12.8333
 20
7.1267
 30
0
 11
12.6944
 21
7.1267
 31
0
  0
LINE
  8
LAYER1
  6
CONTINUOUS
 62
     7
 10
12.8472
 20
7.1128
 30
0
 11
12.6806
 21
7.1128
 31
0
  0
LINE
  8
LAYER1
  6
CONTINUOUS
 62
     7
 10
12.8333
 20
7.0989
 30
0
 11
12.6944
 21
7.0989
 31
0
  0
LINE
  8
LAYER1
  6
CONTINUOUS
 62
     7
 10
12.8472
 20
7.0851
 30
0
 11
12.6806
 21
7.0851
 31
0
  0
LINE
  8
LAYER1
  6
CONTINUOUS
 62
     7
 10
12.8333
 20
7.0712
 30
0
 11
12.6944
 21
7.0712
 31
0
  0
LINE
  8
LAYER1
  6
CONTINUOUS
 62
     7
 10
12.8472
 20
7.0573
 30
0
 11
12.6806
 21
7.0573
 31
0
  0
LINE
  8
LAYER1
  6
CONTINUOUS
 62
     7
 10
12.8333
 20
7.0434
 30
0
 11
12.6944
 21
7.0434
 31
0
  0
LINE
  8
LAYER1
  6
CONTINUOUS
 62
     7
 10
12.8472
 20
7.0295
 30
0
 11
12.6806
 21
7.0295
 31
0
  0
LINE
  8
LAYER1
  6
CONTINUOUS
 62
     7
 10
12.8333
 20
7.0017
 30
0
 11
12.6944
 21
7.0017
 31
0
  0
LINE
  8
LAYER1
  6
CONTINUOUS
 62
     7
 10
12.8472
 20
6.9878
 30
0
 11
12.6806
 21
6.9878
 31
0
  0
LINE
  8
LAYER1
  6
CONTINUOUS
 62
     7
 10
12.8333
 20
6.9739
 30
0
 11
12.6944
 21
6.9739
 31
0
  0
LINE
  8
LAYER1
  6
CONTINUOUS
 62
     7
 10
12.8472
 20
6.9601
 30
0
 11
12.6806
 21
6.9601
 31
0
  0
LINE
  8
LAYER1
  6
CONTINUOUS
 62
     7
 10
12.8333
 20
6.9462
 30
0
 11
12.6944
 21
6.9462
 31
0
  0
LINE
  8
LAYER1
  6
CONTINUOUS
 62
     7
 10
12.8472
 20
6.9184
 30
0
 11
12.6806
 21
6.9184
 31
0
  0
LINE
  8
LAYER1
  6
CONTINUOUS
 62
     7
 10
12.8333
 20
6.9045
 30
0
 11
12.6944
 21
6.9045
 31
0
  0
LINE
  8
LAYER1
  6
CONTINUOUS
 62
     7
 10
12.6806
 20
6.9184
 30
0
 11
12.6944
 21
6.9045
 31
0
  0
LINE
  8
LAYER1
  6
CONTINUOUS
 62
     7
 10
12.8472
 20
6.9184
 30
0
 11
12.8333
 21
6.9045
 31
0
  0
LINE
  8
LAYER1
  6
CONTINUOUS
 62
     7
 10
12.8472
 20
7.3073
 30
0
 11
12.6806
 21
7.3073
 31
0
  0
LINE
  8
LAYER1
  6
CONTINUOUS
 62
     7
 10
12.8333
 20
7.2934
 30
0
 11
12.6944
 21
7.2934
 31
0
  0
LINE
  8
LAYER1
  6
CONTINUOUS
 62
     7
 10
12.8472
 20
7.3351
 30
0
 11
12.6806
 21
7.3351
 31
0
  0
LINE
  8
LAYER1
  6
CONTINUOUS
 62
     7
 10
12.8333
 20
7.3212
 30
0
 11
12.6944
 21
7.3212
 31
0
  0
LINE
  8
LAYER1
  6
CONTINUOUS
 62
     7
 10
12.8472
 20
7.3628
 30
0
 11
12.6806
 21
7.3628
 31
0
  0
LINE
  8
LAYER1
  6
CONTINUOUS
 62
     7
 10
12.8333
 20
7.3489
 30
0
 11
12.6944
 21
7.3489
 31
0
  0
LINE
  8
LAYER1
  6
CONTINUOUS
 62
     7
 10
12.8472
 20
7.4045
 30
0
 11
12.6806
 21
7.4045
 31
0
  0
LINE
  8
LAYER1
  6
CONTINUOUS
 62
     7
 10
12.8333
 20
7.3767
 30
0
 11
12.6944
 21
7.3767
 31
0
  0
LINE
  8
LAYER1
  6
CONTINUOUS
 62
     7
 10
12.8472
 20
7.4323
 30
0
 11
12.6806
 21
7.4323
 31
0
  0
LINE
  8
LAYER1
  6
CONTINUOUS
 62
     7
 10
12.8333
 20
7.4184
 30
0
 11
12.6944
 21
7.4184
 31
0
  0
LINE
  8
LAYER1
  6
CONTINUOUS
 62
     7
 10
12.8472
 20
7.4601
 30
0
 11
12.6806
 21
7.4601
 31
0
  0
LINE
  8
LAYER1
  6
CONTINUOUS
 62
     7
 10
12.8333
 20
7.4462
 30
0
 11
12.6944
 21
7.4462
 31
0
  0
LINE
  8
LAYER1
  6
CONTINUOUS
 62
     7
 10
12.8472
 20
7.4878
 30
0
 11
12.6806
 21
7.4878
 31
0
  0
LINE
  8
LAYER1
  6
CONTINUOUS
 62
     7
 10
12.8333
 20
7.4739
 30
0
 11
12.6944
 21
7.4739
 31
0
  0
LINE
  8
LAYER1
  6
CONTINUOUS
 62
     7
 10
12.8472
 20
7.5295
 30
0
 11
12.6806
 21
7.5295
 31
0
  0
LINE
  8
LAYER1
  6
CONTINUOUS
 62
     7
 10
12.8333
 20
7.5017
 30
0
 11
12.6944
 21
7.5017
 31
0
  0
LINE
  8
LAYER1
  6
CONTINUOUS
 62
     7
 10
12.8472
 20
7.5573
 30
0
 11
12.6806
 21
7.5573
 31
0
  0
LINE
  8
LAYER1
  6
CONTINUOUS
 62
     7
 10
12.8333
 20
7.5434
 30
0
 11
12.6944
 21
7.5434
 31
0
  0
LINE
  8
LAYER1
  6
CONTINUOUS
 62
     7
 10
12.8472
 20
7.5851
 30
0
 11
12.6806
 21
7.5851
 31
0
  0
LINE
  8
LAYER1
  6
CONTINUOUS
 62
     7
 10
12.8333
 20
7.5712
 30
0
 11
12.6944
 21
7.5712
 31
0
  0
LINE
  8
LAYER1
  6
CONTINUOUS
 62
     7
 10
12.8472
 20
7.6128
 30
0
 11
12.6806
 21
7.6128
 31
0
  0
LINE
  8
LAYER1
  6
CONTINUOUS
 62
     7
 10
12.8333
 20
7.5989
 30
0
 11
12.6944
 21
7.5989
 31
0
  0
LINE
  8
LAYER1
  6
CONTINUOUS
 62
     7
 10
12.8472
 20
7.6545
 30
0
 11
12.6806
 21
7.6545
 31
0
  0
LINE
  8
LAYER1
  6
CONTINUOUS
 62
     7
 10
12.8333
 20
7.6267
 30
0
 11
12.6944
 21
7.6267
 31
0
  0
LINE
  8
LAYER1
  6
CONTINUOUS
 62
     7
 10
12.8472
 20
7.6823
 30
0
 11
12.6806
 21
7.6823
 31
0
  0
LINE
  8
LAYER1
  6
CONTINUOUS
 62
     7
 10
12.8333
 20
7.6684
 30
0
 11
12.6944
 21
7.6684
 31
0
  0
LINE
  8
LAYER1
  6
CONTINUOUS
 62
     7
 10
12.8472
 20
7.7101
 30
0
 11
12.6806
 21
7.7101
 31
0
  0
LINE
  8
LAYER1
  6
CONTINUOUS
 62
     7
 10
12.8333
 20
7.6962
 30
0
 11
12.6944
 21
7.6962
 31
0
  0
LINE
  8
LAYER1
  6
CONTINUOUS
 62
     7
 10
12.8472
 20
7.7378
 30
0
 11
12.6806
 21
7.7378
 31
0
  0
LINE
  8
LAYER1
  6
CONTINUOUS
 62
     7
 10
12.8333
 20
7.7239
 30
0
 11
12.6944
 21
7.7239
 31
0
  0
LINE
  8
LAYER1
  6
CONTINUOUS
 62
     7
 10
12.8472
 20
7.7795
 30
0
 11
12.6806
 21
7.7795
 31
0
  0
LINE
  8
LAYER1
  6
CONTINUOUS
 62
     7
 10
12.8333
 20
7.7517
 30
0
 11
12.6944
 21
7.7517
 31
0
  0
LINE
  8
LAYER1
  6
CONTINUOUS
 62
     7
 10
12.8472
 20
7.8073
 30
0
 11
12.6806
 21
7.8073
 31
0
  0
LINE
  8
LAYER1
  6
CONTINUOUS
 62
     7
 10
12.8333
 20
7.7934
 30
0
 11
12.6944
 21
7.7934
 31
0
  0
LINE
  8
LAYER1
  6
CONTINUOUS
 62
     7
 10
12.8472
 20
7.8351
 30
0
 11
12.6806
 21
7.8351
 31
0
  0
LINE
  8
LAYER1
  6
CONTINUOUS
 62
     7
 10
12.8333
 20
7.8212
 30
0
 11
12.6944
 21
7.8212
 31
0
  0
LINE
  8
LAYER1
  6
CONTINUOUS
 62
     7
 10
12.8472
 20
7.8628
 30
0
 11
12.6806
 21
7.8628
 31
0
  0
LINE
  8
LAYER1
  6
CONTINUOUS
 62
     7
 10
12.8333
 20
7.8489
 30
0
 11
12.6944
 21
7.8489
 31
0
  0
LINE
  8
LAYER1
  6
CONTINUOUS
 62
     7
 10
12.8472
 20
7.9045
 30
0
 11
12.6806
 21
7.9045
 31
0
  0
LINE
  8
LAYER1
  6
CONTINUOUS
 62
     7
 10
12.8333
 20
7.8906
 30
0
 11
12.6944
 21
7.8906
 31
0
  0
LINE
  8
LAYER1
  6
CONTINUOUS
 62
     7
 10
12.8472
 20
7.9323
 30
0
 11
12.6806
 21
7.9323
 31
0
  0
LINE
  8
LAYER1
  6
CONTINUOUS
 62
     7
 10
12.8333
 20
7.9184
 30
0
 11
12.6944
 21
7.9184
 31
0
  0
LINE
  8
LAYER1
  6
CONTINUOUS
 62
     7
 10
12.8472
 20
7.9601
 30
0
 11
12.6806
 21
7.9601
 31
0
  0
LINE
  8
LAYER1
  6
CONTINUOUS
 62
     7
 10
12.8333
 20
7.9462
 30
0
 11
12.6944
 21
7.9462
 31
0
  0
LINE
  8
LAYER1
  6
CONTINUOUS
 62
     7
 10
12.8472
 20
7.9878
 30
0
 11
12.6806
 21
7.9878
 31
0
  0
LINE
  8
LAYER1
  6
CONTINUOUS
 62
     7
 10
12.8333
 20
7.9739
 30
0
 11
12.6944
 21
7.9739
 31
0
  0
LINE
  8
LAYER1
  6
CONTINUOUS
 62
     7
 10
12.8472
 20
8.0295
 30
0
 11
12.6806
 21
8.0295
 31
0
  0
LINE
  8
LAYER1
  6
CONTINUOUS
 62
     7
 10
12.8333
 20
8.0156
 30
0
 11
12.6944
 21
8.0156
 31
0
  0
LINE
  8
LAYER1
  6
CONTINUOUS
 62
     7
 10
12.8472
 20
8.0573
 30
0
 11
12.6806
 21
8.0573
 31
0
  0
LINE
  8
LAYER1
  6
CONTINUOUS
 62
     7
 10
12.8333
 20
8.0434
 30
0
 11
12.6944
 21
8.0434
 31
0
  0
LINE
  8
LAYER1
  6
CONTINUOUS
 62
     7
 10
12.8472
 20
8.0851
 30
0
 11
12.6806
 21
8.0851
 31
0
  0
LINE
  8
LAYER1
  6
CONTINUOUS
 62
     7
 10
12.8333
 20
8.0712
 30
0
 11
12.6944
 21
8.0712
 31
0
  0
LINE
  8
LAYER1
  6
CONTINUOUS
 62
     7
 10
12.8472
 20
8.1128
 30
0
 11
12.6806
 21
8.1128
 31
0
  0
LINE
  8
LAYER1
  6
CONTINUOUS
 62
     7
 10
12.8333
 20
8.0989
 30
0
 11
12.6944
 21
8.0989
 31
0
  0
LINE
  8
LAYER1
  6
CONTINUOUS
 62
     7
 10
12.8472
 20
8.1545
 30
0
 11
12.6806
 21
8.1545
 31
0
  0
LINE
  8
LAYER1
  6
CONTINUOUS
 62
     7
 10
12.8333
 20
8.1406
 30
0
 11
12.6944
 21
8.1406
 31
0
  0
LINE
  8
LAYER1
  6
CONTINUOUS
 62
     7
 10
12.8472
 20
8.1823
 30
0
 11
12.6806
 21
8.1823
 31
0
  0
LINE
  8
LAYER1
  6
CONTINUOUS
 62
     7
 10
12.8333
 20
8.1684
 30
0
 11
12.6944
 21
8.1684
 31
0
  0
LINE
  8
LAYER1
  6
CONTINUOUS
 62
     7
 10
12.8472
 20
8.2101
 30
0
 11
12.6806
 21
8.2101
 31
0
  0
LINE
  8
LAYER1
  6
CONTINUOUS
 62
     7
 10
12.8333
 20
8.1962
 30
0
 11
12.6944
 21
8.1962
 31
0
  0
LINE
  8
LAYER1
  6
CONTINUOUS
 62
     7
 10
12.8472
 20
8.2378
 30
0
 11
12.6806
 21
8.2378
 31
0
  0
LINE
  8
LAYER1
  6
CONTINUOUS
 62
     7
 10
12.8333
 20
8.2239
 30
0
 11
12.6944
 21
8.2239
 31
0
  0
LINE
  8
LAYER1
  6
CONTINUOUS
 62
     7
 10
12.8472
 20
8.2795
 30
0
 11
12.6806
 21
8.2795
 31
0
  0
LINE
  8
LAYER1
  6
CONTINUOUS
 62
     7
 10
12.8333
 20
8.2656
 30
0
 11
12.6944
 21
8.2656
 31
0
  0
LINE
  8
LAYER1
  6
CONTINUOUS
 62
     7
 10
12.8472
 20
8.3073
 30
0
 11
12.6806
 21
8.3073
 31
0
  0
LINE
  8
LAYER1
  6
CONTINUOUS
 62
     7
 10
12.8333
 20
8.2934
 30
0
 11
12.6944
 21
8.2934
 31
0
  0
LINE
  8
LAYER1
  6
CONTINUOUS
 62
     7
 10
12.8472
 20
8.3351
 30
0
 11
12.6806
 21
8.3351
 31
0
  0
LINE
  8
LAYER1
  6
CONTINUOUS
 62
     7
 10
12.8333
 20
8.3212
 30
0
 11
12.6944
 21
8.3212
 31
0
  0
LINE
  8
LAYER1
  6
CONTINUOUS
 62
     7
 10
12.8472
 20
8.3628
 30
0
 11
12.6806
 21
8.3628
 31
0
  0
LINE
  8
LAYER1
  6
CONTINUOUS
 62
     7
 10
12.8333
 20
8.3489
 30
0
 11
12.6944
 21
8.3489
 31
0
  0
LINE
  8
LAYER1
  6
CONTINUOUS
 62
     7
 10
12.8472
 20
8.4045
 30
0
 11
12.6806
 21
8.4045
 31
0
  0
LINE
  8
LAYER1
  6
CONTINUOUS
 62
     7
 10
12.8333
 20
8.3906
 30
0
 11
12.6944
 21
8.3906
 31
0
  0
LINE
  8
LAYER1
  6
CONTINUOUS
 62
     7
 10
12.8472
 20
8.4184
 30
0
 11
12.6806
 21
8.4184
 31
0
  0
LINE
  8
LAYER1
  6
CONTINUOUS
 62
     7
 10
12.8472
 20
8.4184
 30
0
 11
12.8472
 21
6.9184
 31
0
  0
POLYLINE
  8
LAYER1
  6
CONTINUOUS
 62
     7
 66
     1
 70
     0
 40
0.001
 41
0.001
  0
VERTEX
  8
LAYER1
 10
12.6806
 20
6.9184
 30
0
 70
     0
  0
VERTEX
  8
LAYER1
 10
12.6806
 20
8.4184
 30
0
 70
     0
  0
VERTEX
  8
LAYER1
 10
12.6667
 20
8.4323
 30
0
 70
     0
  0
SEQEND
  0
ENDBLK
  8
LAYER1
  0
BLOCK
  8
LAYER1
  2
Group8
 70
     0
 10
0
 20
0
 30
0
  0
LINE
  8
LAYER1
  6
CONTINUOUS
 62
     7
 10
12.8472
 20
8.4184
 30
0
 11
12.8472
 21
8.4323
 31
0
  0
LINE
  8
LAYER1
  6
CONTINUOUS
 62
     7
 10
13.4722
 20
7.0295
 30
0
 11
13.2917
 21
7.0295
 31
0
  0
LINE
  8
LAYER1
  6
CONTINUOUS
 62
     7
 10
13.4444
 20
7.0017
 30
0
 11
13.3056
 21
7.0017
 31
0
  0
LINE
  8
LAYER1
  6
CONTINUOUS
 62
     7
 10
13.4722
 20
6.9878
 30
0
 11
13.2917
 21
6.9878
 31
0
  0
LINE
  8
LAYER1
  6
CONTINUOUS
 62
     7
 10
13.4444
 20
6.9739
 30
0
 11
13.3056
 21
6.9739
 31
0
  0
LINE
  8
LAYER1
  6
CONTINUOUS
 62
     7
 10
13.4722
 20
6.9601
 30
0
 11
13.2917
 21
6.9601
 31
0
  0
LINE
  8
LAYER1
  6
CONTINUOUS
 62
     7
 10
13.4444
 20
6.9462
 30
0
 11
13.3056
 21
6.9462
 31
0
  0
LINE
  8
LAYER1
  6
CONTINUOUS
 62
     7
 10
13.4722
 20
6.9323
 30
0
 11
13.2917
 21
6.9323
 31
0
  0
LINE
  8
LAYER1
  6
CONTINUOUS
 62
     7
 10
13.4444
 20
6.9184
 30
0
 11
13.3056
 21
6.9184
 31
0
  0
LINE
  8
LAYER1
  6
CONTINUOUS
 62
     7
 10
13.4722
 20
6.9045
 30
0
 11
13.2917
 21
6.9045
 31
0
  0
LINE
  8
LAYER1
  6
CONTINUOUS
 62
     7
 10
13.4444
 20
6.8767
 30
0
 11
13.3056
 21
6.8767
 31
0
  0
LINE
  8
LAYER1
  6
CONTINUOUS
 62
     7
 10
13.4722
 20
6.8628
 30
0
 11
13.2917
 21
6.8628
 31
0
  0
LINE
  8
LAYER1
  6
CONTINUOUS
 62
     7
 10
13.4444
 20
6.8489
 30
0
 11
13.3056
 21
6.8489
 31
0
  0
LINE
  8
LAYER1
  6
CONTINUOUS
 62
     7
 10
13.4722
 20
6.8351
 30
0
 11
13.2917
 21
6.8351
 31
0
  0
LINE
  8
LAYER1
  6
CONTINUOUS
 62
     7
 10
13.4444
 20
6.8212
 30
0
 11
13.3056
 21
6.8212
 31
0
  0
LINE
  8
LAYER1
  6
CONTINUOUS
 62
     7
 10
13.4722
 20
6.8073
 30
0
 11
13.2917
 21
6.8073
 31
0
  0
LINE
  8
LAYER1
  6
CONTINUOUS
 62
     7
 10
13.4444
 20
6.7934
 30
0
 11
13.3056
 21
6.7934
 31
0
  0
LINE
  8
LAYER1
  6
CONTINUOUS
 62
     7
 10
13.4722
 20
6.7795
 30
0
 11
13.2917
 21
6.7795
 31
0
  0
LINE
  8
LAYER1
  6
CONTINUOUS
 62
     7
 10
13.4444
 20
6.7517
 30
0
 11
13.3056
 21
6.7517
 31
0
  0
LINE
  8
LAYER1
  6
CONTINUOUS
 62
     7
 10
13.4722
 20
6.7378
 30
0
 11
13.2917
 21
6.7378
 31
0
  0
LINE
  8
LAYER1
  6
CONTINUOUS
 62
     7
 10
13.4444
 20
6.7239
 30
0
 11
13.3056
 21
6.7239
 31
0
  0
LINE
  8
LAYER1
  6
CONTINUOUS
 62
     7
 10
13.4722
 20
6.7101
 30
0
 11
13.2917
 21
6.7101
 31
0
  0
LINE
  8
LAYER1
  6
CONTINUOUS
 62
     7
 10
13.4444
 20
6.6962
 30
0
 11
13.3056
 21
6.6962
 31
0
  0
LINE
  8
LAYER1
  6
CONTINUOUS
 62
     7
 10
13.4722
 20
6.6684
 30
0
 11
13.2917
 21
6.6684
 31
0
  0
LINE
  8
LAYER1
  6
CONTINUOUS
 62
     7
 10
13.4444
 20
6.6545
 30
0
 11
13.3056
 21
6.6545
 31
0
  0
LINE
  8
LAYER1
  6
CONTINUOUS
 62
     7
 10
13.2917
 20
6.6684
 30
0
 11
13.3056
 21
6.6545
 31
0
  0
LINE
  8
LAYER1
  6
CONTINUOUS
 62
     7
 10
13.4722
 20
6.6684
 30
0
 11
13.4444
 21
6.6545
 31
0
  0
LINE
  8
LAYER1
  6
CONTINUOUS
 62
     7
 10
13.4722
 20
7.0573
 30
0
 11
13.2917
 21
7.0573
 31
0
  0
LINE
  8
LAYER1
  6
CONTINUOUS
 62
     7
 10
13.4444
 20
7.0434
 30
0
 11
13.3056
 21
7.0434
 31
0
  0
LINE
  8
LAYER1
  6
CONTINUOUS
 62
     7
 10
13.4722
 20
7.0851
 30
0
 11
13.2917
 21
7.0851
 31
0
  0
LINE
  8
LAYER1
  6
CONTINUOUS
 62
     7
 10
13.4444
 20
7.0712
 30
0
 11
13.3056
 21
7.0712
 31
0
  0
LINE
  8
LAYER1
  6
CONTINUOUS
 62
     7
 10
13.4722
 20
7.1128
 30
0
 11
13.2917
 21
7.1128
 31
0
  0
LINE
  8
LAYER1
  6
CONTINUOUS
 62
     7
 10
13.4444
 20
7.0989
 30
0
 11
13.3056
 21
7.0989
 31
0
  0
LINE
  8
LAYER1
  6
CONTINUOUS
 62
     7
 10
13.4722
 20
7.1545
 30
0
 11
13.2917
 21
7.1545
 31
0
  0
LINE
  8
LAYER1
  6
CONTINUOUS
 62
     7
 10
13.4444
 20
7.1267
 30
0
 11
13.3056
 21
7.1267
 31
0
  0
LINE
  8
LAYER1
  6
CONTINUOUS
 62
     7
 10
13.4722
 20
7.1823
 30
0
 11
13.2917
 21
7.1823
 31
0
  0
LINE
  8
LAYER1
  6
CONTINUOUS
 62
     7
 10
13.4444
 20
7.1684
 30
0
 11
13.3056
 21
7.1684
 31
0
  0
LINE
  8
LAYER1
  6
CONTINUOUS
 62
     7
 10
13.4722
 20
7.2101
 30
0
 11
13.2917
 21
7.2101
 31
0
  0
LINE
  8
LAYER1
  6
CONTINUOUS
 62
     7
 10
13.4444
 20
7.1962
 30
0
 11
13.3056
 21
7.1962
 31
0
  0
LINE
  8
LAYER1
  6
CONTINUOUS
 62
     7
 10
13.4722
 20
7.2378
 30
0
 11
13.2917
 21
7.2378
 31
0
  0
LINE
  8
LAYER1
  6
CONTINUOUS
 62
     7
 10
13.4444
 20
7.2239
 30
0
 11
13.3056
 21
7.2239
 31
0
  0
LINE
  8
LAYER1
  6
CONTINUOUS
 62
     7
 10
13.4722
 20
7.2795
 30
0
 11
13.2917
 21
7.2795
 31
0
  0
LINE
  8
LAYER1
  6
CONTINUOUS
 62
     7
 10
13.4444
 20
7.2517
 30
0
 11
13.3056
 21
7.2517
 31
0
  0
LINE
  8
LAYER1
  6
CONTINUOUS
 62
     7
 10
13.4722
 20
7.3073
 30
0
 11
13.2917
 21
7.3073
 31
0
  0
LINE
  8
LAYER1
  6
CONTINUOUS
 62
     7
 10
13.4444
 20
7.2934
 30
0
 11
13.3056
 21
7.2934
 31
0
  0
LINE
  8
LAYER1
  6
CONTINUOUS
 62
     7
 10
13.4722
 20
7.3351
 30
0
 11
13.2917
 21
7.3351
 31
0
  0
LINE
  8
LAYER1
  6
CONTINUOUS
 62
     7
 10
13.4444
 20
7.3212
 30
0
 11
13.3056
 21
7.3212
 31
0
  0
LINE
  8
LAYER1
  6
CONTINUOUS
 62
     7
 10
13.4722
 20
7.3628
 30
0
 11
13.2917
 21
7.3628
 31
0
  0
LINE
  8
LAYER1
  6
CONTINUOUS
 62
     7
 10
13.4444
 20
7.3489
 30
0
 11
13.3056
 21
7.3489
 31
0
  0
LINE
  8
LAYER1
  6
CONTINUOUS
 62
     7
 10
13.4722
 20
7.4045
 30
0
 11
13.2917
 21
7.4045
 31
0
  0
LINE
  8
LAYER1
  6
CONTINUOUS
 62
     7
 10
13.4444
 20
7.3767
 30
0
 11
13.3056
 21
7.3767
 31
0
  0
LINE
  8
LAYER1
  6
CONTINUOUS
 62
     7
 10
13.4722
 20
7.4323
 30
0
 11
13.2917
 21
7.4323
 31
0
  0
LINE
  8
LAYER1
  6
CONTINUOUS
 62
     7
 10
13.4444
 20
7.4184
 30
0
 11
13.3056
 21
7.4184
 31
0
  0
LINE
  8
LAYER1
  6
CONTINUOUS
 62
     7
 10
13.4722
 20
7.4601
 30
0
 11
13.2917
 21
7.4601
 31
0
  0
LINE
  8
LAYER1
  6
CONTINUOUS
 62
     7
 10
13.4444
 20
7.4462
 30
0
 11
13.3056
 21
7.4462
 31
0
  0
LINE
  8
LAYER1
  6
CONTINUOUS
 62
     7
 10
13.4722
 20
7.4878
 30
0
 11
13.2917
 21
7.4878
 31
0
  0
LINE
  8
LAYER1
  6
CONTINUOUS
 62
     7
 10
13.4444
 20
7.4739
 30
0
 11
13.3056
 21
7.4739
 31
0
  0
LINE
  8
LAYER1
  6
CONTINUOUS
 62
     7
 10
13.4722
 20
7.5295
 30
0
 11
13.2917
 21
7.5295
 31
0
  0
LINE
  8
LAYER1
  6
CONTINUOUS
 62
     7
 10
13.4444
 20
7.5017
 30
0
 11
13.3056
 21
7.5017
 31
0
  0
LINE
  8
LAYER1
  6
CONTINUOUS
 62
     7
 10
13.4722
 20
7.5573
 30
0
 11
13.2917
 21
7.5573
 31
0
  0
LINE
  8
LAYER1
  6
CONTINUOUS
 62
     7
 10
13.4444
 20
7.5434
 30
0
 11
13.3056
 21
7.5434
 31
0
  0
LINE
  8
LAYER1
  6
CONTINUOUS
 62
     7
 10
13.4722
 20
7.5851
 30
0
 11
13.2917
 21
7.5851
 31
0
  0
LINE
  8
LAYER1
  6
CONTINUOUS
 62
     7
 10
13.4444
 20
7.5712
 30
0
 11
13.3056
 21
7.5712
 31
0
  0
LINE
  8
LAYER1
  6
CONTINUOUS
 62
     7
 10
13.4722
 20
7.6128
 30
0
 11
13.2917
 21
7.6128
 31
0
  0
LINE
  8
LAYER1
  6
CONTINUOUS
 62
     7
 10
13.4444
 20
7.5989
 30
0
 11
13.3056
 21
7.5989
 31
0
  0
LINE
  8
LAYER1
  6
CONTINUOUS
 62
     7
 10
13.4722
 20
7.6545
 30
0
 11
13.2917
 21
7.6545
 31
0
  0
LINE
  8
LAYER1
  6
CONTINUOUS
 62
     7
 10
13.4444
 20
7.6406
 30
0
 11
13.3056
 21
7.6406
 31
0
  0
LINE
  8
LAYER1
  6
CONTINUOUS
 62
     7
 10
13.4722
 20
7.6823
 30
0
 11
13.2917
 21
7.6823
 31
0
  0
LINE
  8
LAYER1
  6
CONTINUOUS
 62
     7
 10
13.4444
 20
7.6684
 30
0
 11
13.3056
 21
7.6684
 31
0
  0
LINE
  8
LAYER1
  6
CONTINUOUS
 62
     7
 10
13.4722
 20
7.7101
 30
0
 11
13.2917
 21
7.7101
 31
0
  0
LINE
  8
LAYER1
  6
CONTINUOUS
 62
     7
 10
13.4444
 20
7.6962
 30
0
 11
13.3056
 21
7.6962
 31
0
  0
LINE
  8
LAYER1
  6
CONTINUOUS
 62
     7
 10
13.4722
 20
7.7378
 30
0
 11
13.2917
 21
7.7378
 31
0
  0
LINE
  8
LAYER1
  6
CONTINUOUS
 62
     7
 10
13.4444
 20
7.7239
 30
0
 11
13.3056
 21
7.7239
 31
0
  0
LINE
  8
LAYER1
  6
CONTINUOUS
 62
     7
 10
13.4722
 20
7.7795
 30
0
 11
13.2917
 21
7.7795
 31
0
  0
LINE
  8
LAYER1
  6
CONTINUOUS
 62
     7
 10
13.4444
 20
7.7656
 30
0
 11
13.3056
 21
7.7656
 31
0
  0
LINE
  8
LAYER1
  6
CONTINUOUS
 62
     7
 10
13.4722
 20
7.8073
 30
0
 11
13.2917
 21
7.8073
 31
0
  0
LINE
  8
LAYER1
  6
CONTINUOUS
 62
     7
 10
13.4444
 20
7.7934
 30
0
 11
13.3056
 21
7.7934
 31
0
  0
LINE
  8
LAYER1
  6
CONTINUOUS
 62
     7
 10
13.4722
 20
7.8351
 30
0
 11
13.2917
 21
7.8351
 31
0
  0
LINE
  8
LAYER1
  6
CONTINUOUS
 62
     7
 10
13.4444
 20
7.8212
 30
0
 11
13.3056
 21
7.8212
 31
0
  0
LINE
  8
LAYER1
  6
CONTINUOUS
 62
     7
 10
13.4722
 20
7.8628
 30
0
 11
13.2917
 21
7.8628
 31
0
  0
LINE
  8
LAYER1
  6
CONTINUOUS
 62
     7
 10
13.4444
 20
7.8489
 30
0
 11
13.3056
 21
7.8489
 31
0
  0
LINE
  8
LAYER1
  6
CONTINUOUS
 62
     7
 10
13.4722
 20
7.9045
 30
0
 11
13.2917
 21
7.9045
 31
0
  0
LINE
  8
LAYER1
  6
CONTINUOUS
 62
     7
 10
13.4444
 20
7.8906
 30
0
 11
13.3056
 21
7.8906
 31
0
  0
LINE
  8
LAYER1
  6
CONTINUOUS
 62
     7
 10
13.4722
 20
7.9323
 30
0
 11
13.2917
 21
7.9323
 31
0
  0
LINE
  8
LAYER1
  6
CONTINUOUS
 62
     7
 10
13.4444
 20
7.9184
 30
0
 11
13.3056
 21
7.9184
 31
0
  0
LINE
  8
LAYER1
  6
CONTINUOUS
 62
     7
 10
13.4722
 20
7.9601
 30
0
 11
13.2917
 21
7.9601
 31
0
  0
LINE
  8
LAYER1
  6
CONTINUOUS
 62
     7
 10
13.4444
 20
7.9462
 30
0
 11
13.3056
 21
7.9462
 31
0
  0
LINE
  8
LAYER1
  6
CONTINUOUS
 62
     7
 10
13.4722
 20
7.9878
 30
0
 11
13.2917
 21
7.9878
 31
0
  0
LINE
  8
LAYER1
  6
CONTINUOUS
 62
     7
 10
13.4444
 20
7.9739
 30
0
 11
13.3056
 21
7.9739
 31
0
  0
LINE
  8
LAYER1
  6
CONTINUOUS
 62
     7
 10
13.4722
 20
8.0295
 30
0
 11
13.2917
 21
8.0295
 31
0
  0
LINE
  8
LAYER1
  6
CONTINUOUS
 62
     7
 10
13.4444
 20
8.0156
 30
0
 11
13.3056
 21
8.0156
 31
0
  0
LINE
  8
LAYER1
  6
CONTINUOUS
 62
     7
 10
13.4722
 20
8.0573
 30
0
 11
13.2917
 21
8.0573
 31
0
  0
LINE
  8
LAYER1
  6
CONTINUOUS
 62
     7
 10
13.4444
 20
8.0434
 30
0
 11
13.3056
 21
8.0434
 31
0
  0
LINE
  8
LAYER1
  6
CONTINUOUS
 62
     7
 10
13.4722
 20
8.0851
 30
0
 11
13.2917
 21
8.0851
 31
0
  0
LINE
  8
LAYER1
  6
CONTINUOUS
 62
     7
 10
13.4444
 20
8.0712
 30
0
 11
13.3056
 21
8.0712
 31
0
  0
LINE
  8
LAYER1
  6
CONTINUOUS
 62
     7
 10
13.4722
 20
8.1128
 30
0
 11
13.2917
 21
8.1128
 31
0
  0
LINE
  8
LAYER1
  6
CONTINUOUS
 62
     7
 10
13.4444
 20
8.0989
 30
0
 11
13.3056
 21
8.0989
 31
0
  0
LINE
  8
LAYER1
  6
CONTINUOUS
 62
     7
 10
13.4722
 20
8.1545
 30
0
 11
13.2917
 21
8.1545
 31
0
  0
LINE
  8
LAYER1
  6
CONTINUOUS
 62
     7
 10
13.4444
 20
8.1406
 30
0
 11
13.3056
 21
8.1406
 31
0
  0
LINE
  8
LAYER1
  6
CONTINUOUS
 62
     7
 10
13.4722
 20
8.1823
 30
0
 11
13.2917
 21
8.1823
 31
0
  0
LINE
  8
LAYER1
  6
CONTINUOUS
 62
     7
 10
13.4444
 20
8.1684
 30
0
 11
13.3056
 21
8.1684
 31
0
  0
LINE
  8
LAYER1
  6
CONTINUOUS
 62
     7
 10
13.4722
 20
8.2101
 30
0
 11
13.2917
 21
8.2101
 31
0
  0
LINE
  8
LAYER1
  6
CONTINUOUS
 62
     7
 10
13.4444
 20
8.1962
 30
0
 11
13.3056
 21
8.1962
 31
0
  0
LINE
  8
LAYER1
  6
CONTINUOUS
 62
     7
 10
13.4722
 20
8.2378
 30
0
 11
13.2917
 21
8.2378
 31
0
  0
LINE
  8
LAYER1
  6
CONTINUOUS
 62
     7
 10
13.4444
 20
8.2239
 30
0
 11
13.3056
 21
8.2239
 31
0
  0
LINE
  8
LAYER1
  6
CONTINUOUS
 62
     7
 10
13.4722
 20
8.2795
 30
0
 11
13.2917
 21
8.2795
 31
0
  0
LINE
  8
LAYER1
  6
CONTINUOUS
 62
     7
 10
13.4444
 20
8.2656
 30
0
 11
13.3056
 21
8.2656
 31
0
  0
LINE
  8
LAYER1
  6
CONTINUOUS
 62
     7
 10
13.4722
 20
8.3073
 30
0
 11
13.2917
 21
8.3073
 31
0
  0
LINE
  8
LAYER1
  6
CONTINUOUS
 62
     7
 10
13.4444
 20
8.2934
 30
0
 11
13.3056
 21
8.2934
 31
0
  0
LINE
  8
LAYER1
  6
CONTINUOUS
 62
     7
 10
13.4722
 20
8.3351
 30
0
 11
13.2917
 21
8.3351
 31
0
  0
LINE
  8
LAYER1
  6
CONTINUOUS
 62
     7
 10
13.4444
 20
8.3212
 30
0
 11
13.3056
 21
8.3212
 31
0
  0
LINE
  8
LAYER1
  6
CONTINUOUS
 62
     7
 10
13.4722
 20
8.3628
 30
0
 11
13.2917
 21
8.3628
 31
0
  0
LINE
  8
LAYER1
  6
CONTINUOUS
 62
     7
 10
13.4444
 20
8.3489
 30
0
 11
13.3056
 21
8.3489
 31
0
  0
LINE
  8
LAYER1
  6
CONTINUOUS
 62
     7
 10
13.4722
 20
8.4045
 30
0
 11
13.2917
 21
8.4045
 31
0
  0
LINE
  8
LAYER1
  6
CONTINUOUS
 62
     7
 10
13.4444
 20
8.3906
 30
0
 11
13.3056
 21
8.3906
 31
0
  0
LINE
  8
LAYER1
  6
CONTINUOUS
 62
     7
 10
13.4722
 20
8.4184
 30
0
 11
13.2917
 21
8.4184
 31
0
  0
LINE
  8
LAYER1
  6
CONTINUOUS
 62
     7
 10
13.4722
 20
8.4184
 30
0
 11
13.4722
 21
6.6684
 31
0
  0
LINE
  8
LAYER1
  6
CONTINUOUS
 62
     7
 10
13.2917
 20
8.4184
 30
0
 11
13.2917
 21
6.6684
 31
0
  0
LINE
  8
LAYER1
  6
CONTINUOUS
 62
     7
 10
13.2917
 20
8.4184
 30
0
 11
13.2917
 21
8.4323
 31
0
  0
ENDBLK
  8
LAYER1
  0
BLOCK
  8
LAYER1
  2
Group9
 70
     0
 10
0
 20
0
 30
0
  0
LINE
  8
LAYER1
  6
CONTINUOUS
 62
     7
 10
13.4722
 20
8.4184
 30
0
 11
13.4722
 21
8.4323
 31
0
  0
LINE
  8
LAYER1
  6
CONTINUOUS
 62
     7
 10
14.1667
 20
6.7795
 30
0
 11
13.9861
 21
6.7795
 31
0
  0
LINE
  8
LAYER1
  6
CONTINUOUS
 62
     7
 10
14.1528
 20
6.7517
 30
0
 11
14
 21
6.7517
 31
0
  0
LINE
  8
LAYER1
  6
CONTINUOUS
 62
     7
 10
14.1667
 20
6.7378
 30
0
 11
13.9861
 21
6.7378
 31
0
  0
LINE
  8
LAYER1
  6
CONTINUOUS
 62
     7
 10
14.1528
 20
6.7239
 30
0
 11
14
 21
6.7239
 31
0
  0
LINE
  8
LAYER1
  6
CONTINUOUS
 62
     7
 10
14.1667
 20
6.7101
 30
0
 11
13.9861
 21
6.7101
 31
0
  0
LINE
  8
LAYER1
  6
CONTINUOUS
 62
     7
 10
14.1528
 20
6.6962
 30
0
 11
14
 21
6.6962
 31
0
  0
LINE
  8
LAYER1
  6
CONTINUOUS
 62
     7
 10
14.1667
 20
6.6823
 30
0
 11
13.9861
 21
6.6823
 31
0
  0
LINE
  8
LAYER1
  6
CONTINUOUS
 62
     7
 10
14.1528
 20
6.6684
 30
0
 11
14
 21
6.6684
 31
0
  0
LINE
  8
LAYER1
  6
CONTINUOUS
 62
     7
 10
14.1667
 20
6.6545
 30
0
 11
13.9861
 21
6.6545
 31
0
  0
LINE
  8
LAYER1
  6
CONTINUOUS
 62
     7
 10
14.1528
 20
6.6267
 30
0
 11
14
 21
6.6267
 31
0
  0
LINE
  8
LAYER1
  6
CONTINUOUS
 62
     7
 10
14.1667
 20
6.6128
 30
0
 11
13.9861
 21
6.6128
 31
0
  0
LINE
  8
LAYER1
  6
CONTINUOUS
 62
     7
 10
14.1528
 20
6.5989
 30
0
 11
14
 21
6.5989
 31
0
  0
LINE
  8
LAYER1
  6
CONTINUOUS
 62
     7
 10
14.1667
 20
6.5851
 30
0
 11
13.9861
 21
6.5851
 31
0
  0
LINE
  8
LAYER1
  6
CONTINUOUS
 62
     7
 10
14.1528
 20
6.5712
 30
0
 11
14
 21
6.5712
 31
0
  0
LINE
  8
LAYER1
  6
CONTINUOUS
 62
     7
 10
14.1667
 20
6.5573
 30
0
 11
13.9861
 21
6.5573
 31
0
  0
LINE
  8
LAYER1
  6
CONTINUOUS
 62
     7
 10
14.1528
 20
6.5434
 30
0
 11
14
 21
6.5434
 31
0
  0
LINE
  8
LAYER1
  6
CONTINUOUS
 62
     7
 10
14.1667
 20
6.5295
 30
0
 11
13.9861
 21
6.5295
 31
0
  0
LINE
  8
LAYER1
  6
CONTINUOUS
 62
     7
 10
14.1528
 20
6.5017
 30
0
 11
14
 21
6.5017
 31
0
  0
LINE
  8
LAYER1
  6
CONTINUOUS
 62
     7
 10
14.1667
 20
6.4878
 30
0
 11
13.9861
 21
6.4878
 31
0
  0
LINE
  8
LAYER1
  6
CONTINUOUS
 62
     7
 10
14.1528
 20
6.4739
 30
0
 11
14
 21
6.4739
 31
0
  0
LINE
  8
LAYER1
  6
CONTINUOUS
 62
     7
 10
14.1667
 20
6.4601
 30
0
 11
13.9861
 21
6.4601
 31
0
  0
LINE
  8
LAYER1
  6
CONTINUOUS
 62
     7
 10
14.1528
 20
6.4462
 30
0
 11
14
 21
6.4462
 31
0
  0
LINE
  8
LAYER1
  6
CONTINUOUS
 62
     7
 10
14.1667
 20
6.4184
 30
0
 11
13.9861
 21
6.4184
 31
0
  0
LINE
  8
LAYER1
  6
CONTINUOUS
 62
     7
 10
14.1528
 20
6.4045
 30
0
 11
14
 21
6.4045
 31
0
  0
LINE
  8
LAYER1
  6
CONTINUOUS
 62
     7
 10
13.9861
 20
6.4184
 30
0
 11
14
 21
6.4045
 31
0
  0
LINE
  8
LAYER1
  6
CONTINUOUS
 62
     7
 10
14.1667
 20
6.4184
 30
0
 11
14.1528
 21
6.4045
 31
0
  0
LINE
  8
LAYER1
  6
CONTINUOUS
 62
     7
 10
14.1667
 20
6.8073
 30
0
 11
13.9861
 21
6.8073
 31
0
  0
LINE
  8
LAYER1
  6
CONTINUOUS
 62
     7
 10
14.1528
 20
6.7934
 30
0
 11
14
 21
6.7934
 31
0
  0
LINE
  8
LAYER1
  6
CONTINUOUS
 62
     7
 10
14.1667
 20
6.8351
 30
0
 11
13.9861
 21
6.8351
 31
0
  0
LINE
  8
LAYER1
  6
CONTINUOUS
 62
     7
 10
14.1528
 20
6.8212
 30
0
 11
14
 21
6.8212
 31
0
  0
LINE
  8
LAYER1
  6
CONTINUOUS
 62
     7
 10
14.1667
 20
6.8628
 30
0
 11
13.9861
 21
6.8628
 31
0
  0
LINE
  8
LAYER1
  6
CONTINUOUS
 62
     7
 10
14.1528
 20
6.8489
 30
0
 11
14
 21
6.8489
 31
0
  0
LINE
  8
LAYER1
  6
CONTINUOUS
 62
     7
 10
14.1667
 20
6.9045
 30
0
 11
13.9861
 21
6.9045
 31
0
  0
LINE
  8
LAYER1
  6
CONTINUOUS
 62
     7
 10
14.1528
 20
6.8767
 30
0
 11
14
 21
6.8767
 31
0
  0
LINE
  8
LAYER1
  6
CONTINUOUS
 62
     7
 10
14.1667
 20
6.9323
 30
0
 11
13.9861
 21
6.9323
 31
0
  0
LINE
  8
LAYER1
  6
CONTINUOUS
 62
     7
 10
14.1528
 20
6.9184
 30
0
 11
14
 21
6.9184
 31
0
  0
LINE
  8
LAYER1
  6
CONTINUOUS
 62
     7
 10
14.1667
 20
6.9601
 30
0
 11
13.9861
 21
6.9601
 31
0
  0
LINE
  8
LAYER1
  6
CONTINUOUS
 62
     7
 10
14.1528
 20
6.9462
 30
0
 11
14
 21
6.9462
 31
0
  0
LINE
  8
LAYER1
  6
CONTINUOUS
 62
     7
 10
14.1667
 20
6.9878
 30
0
 11
13.9861
 21
6.9878
 31
0
  0
LINE
  8
LAYER1
  6
CONTINUOUS
 62
     7
 10
14.1528
 20
6.9739
 30
0
 11
14
 21
6.9739
 31
0
  0
LINE
  8
LAYER1
  6
CONTINUOUS
 62
     7
 10
14.1667
 20
7.0295
 30
0
 11
13.9861
 21
7.0295
 31
0
  0
LINE
  8
LAYER1
  6
CONTINUOUS
 62
     7
 10
14.1528
 20
7.0017
 30
0
 11
14
 21
7.0017
 31
0
  0
LINE
  8
LAYER1
  6
CONTINUOUS
 62
     7
 10
14.1667
 20
7.0573
 30
0
 11
13.9861
 21
7.0573
 31
0
  0
LINE
  8
LAYER1
  6
CONTINUOUS
 62
     7
 10
14.1528
 20
7.0434
 30
0
 11
14
 21
7.0434
 31
0
  0
LINE
  8
LAYER1
  6
CONTINUOUS
 62
     7
 10
14.1667
 20
7.0851
 30
0
 11
13.9861
 21
7.0851
 31
0
  0
LINE
  8
LAYER1
  6
CONTINUOUS
 62
     7
 10
14.1528
 20
7.0712
 30
0
 11
14
 21
7.0712
 31
0
  0
LINE
  8
LAYER1
  6
CONTINUOUS
 62
     7
 10
14.1667
 20
7.1128
 30
0
 11
13.9861
 21
7.1128
 31
0
  0
LINE
  8
LAYER1
  6
CONTINUOUS
 62
     7
 10
14.1528
 20
7.0989
 30
0
 11
14
 21
7.0989
 31
0
  0
LINE
  8
LAYER1
  6
CONTINUOUS
 62
     7
 10
14.1667
 20
7.1545
 30
0
 11
13.9861
 21
7.1545
 31
0
  0
LINE
  8
LAYER1
  6
CONTINUOUS
 62
     7
 10
14.1528
 20
7.1267
 30
0
 11
14
 21
7.1267
 31
0
  0
LINE
  8
LAYER1
  6
CONTINUOUS
 62
     7
 10
14.1667
 20
7.1823
 30
0
 11
13.9861
 21
7.1823
 31
0
  0
LINE
  8
LAYER1
  6
CONTINUOUS
 62
     7
 10
14.1528
 20
7.1684
 30
0
 11
14
 21
7.1684
 31
0
  0
LINE
  8
LAYER1
  6
CONTINUOUS
 62
     7
 10
14.1667
 20
7.2101
 30
0
 11
13.9861
 21
7.2101
 31
0
  0
LINE
  8
LAYER1
  6
CONTINUOUS
 62
     7
 10
14.1528
 20
7.1962
 30
0
 11
14
 21
7.1962
 31
0
  0
LINE
  8
LAYER1
  6
CONTINUOUS
 62
     7
 10
14.1667
 20
7.2378
 30
0
 11
13.9861
 21
7.2378
 31
0
  0
LINE
  8
LAYER1
  6
CONTINUOUS
 62
     7
 10
14.1528
 20
7.2239
 30
0
 11
14
 21
7.2239
 31
0
  0
LINE
  8
LAYER1
  6
CONTINUOUS
 62
     7
 10
14.1667
 20
7.2795
 30
0
 11
13.9861
 21
7.2795
 31
0
  0
LINE
  8
LAYER1
  6
CONTINUOUS
 62
     7
 10
14.1528
 20
7.2517
 30
0
 11
14
 21
7.2517
 31
0
  0
LINE
  8
LAYER1
  6
CONTINUOUS
 62
     7
 10
14.1667
 20
7.3073
 30
0
 11
13.9861
 21
7.3073
 31
0
  0
LINE
  8
LAYER1
  6
CONTINUOUS
 62
     7
 10
14.1528
 20
7.2934
 30
0
 11
14
 21
7.2934
 31
0
  0
LINE
  8
LAYER1
  6
CONTINUOUS
 62
     7
 10
14.1667
 20
7.3351
 30
0
 11
13.9861
 21
7.3351
 31
0
  0
LINE
  8
LAYER1
  6
CONTINUOUS
 62
     7
 10
14.1528
 20
7.3212
 30
0
 11
14
 21
7.3212
 31
0
  0
LINE
  8
LAYER1
  6
CONTINUOUS
 62
     7
 10
14.1667
 20
7.3628
 30
0
 11
13.9861
 21
7.3628
 31
0
  0
LINE
  8
LAYER1
  6
CONTINUOUS
 62
     7
 10
14.1528
 20
7.3489
 30
0
 11
14
 21
7.3489
 31
0
  0
LINE
  8
LAYER1
  6
CONTINUOUS
 62
     7
 10
14.1667
 20
7.4045
 30
0
 11
13.9861
 21
7.4045
 31
0
  0
LINE
  8
LAYER1
  6
CONTINUOUS
 62
     7
 10
14.1528
 20
7.3906
 30
0
 11
14
 21
7.3906
 31
0
  0
LINE
  8
LAYER1
  6
CONTINUOUS
 62
     7
 10
14.1667
 20
7.4323
 30
0
 11
13.9861
 21
7.4323
 31
0
  0
LINE
  8
LAYER1
  6
CONTINUOUS
 62
     7
 10
14.1528
 20
7.4184
 30
0
 11
14
 21
7.4184
 31
0
  0
LINE
  8
LAYER1
  6
CONTINUOUS
 62
     7
 10
14.1667
 20
7.4601
 30
0
 11
13.9861
 21
7.4601
 31
0
  0
LINE
  8
LAYER1
  6
CONTINUOUS
 62
     7
 10
14.1528
 20
7.4462
 30
0
 11
14
 21
7.4462
 31
0
  0
LINE
  8
LAYER1
  6
CONTINUOUS
 62
     7
 10
14.1667
 20
7.4878
 30
0
 11
13.9861
 21
7.4878
 31
0
  0
LINE
  8
LAYER1
  6
CONTINUOUS
 62
     7
 10
14.1528
 20
7.4739
 30
0
 11
14
 21
7.4739
 31
0
  0
LINE
  8
LAYER1
  6
CONTINUOUS
 62
     7
 10
14.1667
 20
7.5295
 30
0
 11
13.9861
 21
7.5295
 31
0
  0
LINE
  8
LAYER1
  6
CONTINUOUS
 62
     7
 10
14.1528
 20
7.5156
 30
0
 11
14
 21
7.5156
 31
0
  0
LINE
  8
LAYER1
  6
CONTINUOUS
 62
     7
 10
14.1667
 20
7.5573
 30
0
 11
13.9861
 21
7.5573
 31
0
  0
LINE
  8
LAYER1
  6
CONTINUOUS
 62
     7
 10
14.1528
 20
7.5434
 30
0
 11
14
 21
7.5434
 31
0
  0
LINE
  8
LAYER1
  6
CONTINUOUS
 62
     7
 10
14.1667
 20
7.5851
 30
0
 11
13.9861
 21
7.5851
 31
0
  0
LINE
  8
LAYER1
  6
CONTINUOUS
 62
     7
 10
14.1528
 20
7.5712
 30
0
 11
14
 21
7.5712
 31
0
  0
LINE
  8
LAYER1
  6
CONTINUOUS
 62
     7
 10
14.1667
 20
7.6128
 30
0
 11
13.9861
 21
7.6128
 31
0
  0
LINE
  8
LAYER1
  6
CONTINUOUS
 62
     7
 10
14.1528
 20
7.5989
 30
0
 11
14
 21
7.5989
 31
0
  0
LINE
  8
LAYER1
  6
CONTINUOUS
 62
     7
 10
14.1667
 20
7.6545
 30
0
 11
13.9861
 21
7.6545
 31
0
  0
LINE
  8
LAYER1
  6
CONTINUOUS
 62
     7
 10
14.1528
 20
7.6406
 30
0
 11
14
 21
7.6406
 31
0
  0
LINE
  8
LAYER1
  6
CONTINUOUS
 62
     7
 10
14.1667
 20
7.6823
 30
0
 11
13.9861
 21
7.6823
 31
0
  0
LINE
  8
LAYER1
  6
CONTINUOUS
 62
     7
 10
14.1528
 20
7.6684
 30
0
 11
14
 21
7.6684
 31
0
  0
LINE
  8
LAYER1
  6
CONTINUOUS
 62
     7
 10
14.1667
 20
7.7101
 30
0
 11
13.9861
 21
7.7101
 31
0
  0
LINE
  8
LAYER1
  6
CONTINUOUS
 62
     7
 10
14.1528
 20
7.6962
 30
0
 11
14
 21
7.6962
 31
0
  0
LINE
  8
LAYER1
  6
CONTINUOUS
 62
     7
 10
14.1667
 20
7.7378
 30
0
 11
13.9861
 21
7.7378
 31
0
  0
LINE
  8
LAYER1
  6
CONTINUOUS
 62
     7
 10
14.1528
 20
7.7239
 30
0
 11
14
 21
7.7239
 31
0
  0
LINE
  8
LAYER1
  6
CONTINUOUS
 62
     7
 10
14.1667
 20
7.7795
 30
0
 11
13.9861
 21
7.7795
 31
0
  0
LINE
  8
LAYER1
  6
CONTINUOUS
 62
     7
 10
14.1528
 20
7.7656
 30
0
 11
14
 21
7.7656
 31
0
  0
LINE
  8
LAYER1
  6
CONTINUOUS
 62
     7
 10
14.1667
 20
7.8073
 30
0
 11
13.9861
 21
7.8073
 31
0
  0
LINE
  8
LAYER1
  6
CONTINUOUS
 62
     7
 10
14.1528
 20
7.7934
 30
0
 11
14
 21
7.7934
 31
0
  0
LINE
  8
LAYER1
  6
CONTINUOUS
 62
     7
 10
14.1667
 20
7.8351
 30
0
 11
13.9861
 21
7.8351
 31
0
  0
LINE
  8
LAYER1
  6
CONTINUOUS
 62
     7
 10
14.1528
 20
7.8212
 30
0
 11
14
 21
7.8212
 31
0
  0
LINE
  8
LAYER1
  6
CONTINUOUS
 62
     7
 10
14.1667
 20
7.8628
 30
0
 11
13.9861
 21
7.8628
 31
0
  0
LINE
  8
LAYER1
  6
CONTINUOUS
 62
     7
 10
14.1528
 20
7.8489
 30
0
 11
14
 21
7.8489
 31
0
  0
LINE
  8
LAYER1
  6
CONTINUOUS
 62
     7
 10
14.1667
 20
7.9045
 30
0
 11
13.9861
 21
7.9045
 31
0
  0
LINE
  8
LAYER1
  6
CONTINUOUS
 62
     7
 10
14.1528
 20
7.8906
 30
0
 11
14
 21
7.8906
 31
0
  0
LINE
  8
LAYER1
  6
CONTINUOUS
 62
     7
 10
14.1667
 20
7.9323
 30
0
 11
13.9861
 21
7.9323
 31
0
  0
LINE
  8
LAYER1
  6
CONTINUOUS
 62
     7
 10
14.1528
 20
7.9184
 30
0
 11
14
 21
7.9184
 31
0
  0
LINE
  8
LAYER1
  6
CONTINUOUS
 62
     7
 10
14.1667
 20
7.9601
 30
0
 11
13.9861
 21
7.9601
 31
0
  0
LINE
  8
LAYER1
  6
CONTINUOUS
 62
     7
 10
14.1528
 20
7.9462
 30
0
 11
14
 21
7.9462
 31
0
  0
LINE
  8
LAYER1
  6
CONTINUOUS
 62
     7
 10
14.1667
 20
7.9878
 30
0
 11
13.9861
 21
7.9878
 31
0
  0
LINE
  8
LAYER1
  6
CONTINUOUS
 62
     7
 10
14.1528
 20
7.9739
 30
0
 11
14
 21
7.9739
 31
0
  0
LINE
  8
LAYER1
  6
CONTINUOUS
 62
     7
 10
14.1667
 20
8.0295
 30
0
 11
13.9861
 21
8.0295
 31
0
  0
LINE
  8
LAYER1
  6
CONTINUOUS
 62
     7
 10
14.1528
 20
8.0156
 30
0
 11
14
 21
8.0156
 31
0
  0
LINE
  8
LAYER1
  6
CONTINUOUS
 62
     7
 10
14.1667
 20
8.0573
 30
0
 11
13.9861
 21
8.0573
 31
0
  0
LINE
  8
LAYER1
  6
CONTINUOUS
 62
     7
 10
14.1528
 20
8.0434
 30
0
 11
14
 21
8.0434
 31
0
  0
LINE
  8
LAYER1
  6
CONTINUOUS
 62
     7
 10
14.1667
 20
8.0851
 30
0
 11
13.9861
 21
8.0851
 31
0
  0
LINE
  8
LAYER1
  6
CONTINUOUS
 62
     7
 10
14.1528
 20
8.0712
 30
0
 11
14
 21
8.0712
 31
0
  0
LINE
  8
LAYER1
  6
CONTINUOUS
 62
     7
 10
14.1667
 20
8.1128
 30
0
 11
13.9861
 21
8.1128
 31
0
  0
LINE
  8
LAYER1
  6
CONTINUOUS
 62
     7
 10
14.1528
 20
8.0989
 30
0
 11
14
 21
8.0989
 31
0
  0
LINE
  8
LAYER1
  6
CONTINUOUS
 62
     7
 10
14.1667
 20
8.1545
 30
0
 11
13.9861
 21
8.1545
 31
0
  0
LINE
  8
LAYER1
  6
CONTINUOUS
 62
     7
 10
14.1528
 20
8.1406
 30
0
 11
14
 21
8.1406
 31
0
  0
LINE
  8
LAYER1
  6
CONTINUOUS
 62
     7
 10
14.1667
 20
8.1823
 30
0
 11
13.9861
 21
8.1823
 31
0
  0
LINE
  8
LAYER1
  6
CONTINUOUS
 62
     7
 10
14.1528
 20
8.1684
 30
0
 11
14
 21
8.1684
 31
0
  0
LINE
  8
LAYER1
  6
CONTINUOUS
 62
     7
 10
14.1667
 20
8.2101
 30
0
 11
13.9861
 21
8.2101
 31
0
  0
LINE
  8
LAYER1
  6
CONTINUOUS
 62
     7
 10
14.1528
 20
8.1962
 30
0
 11
14
 21
8.1962
 31
0
  0
LINE
  8
LAYER1
  6
CONTINUOUS
 62
     7
 10
14.1667
 20
8.2378
 30
0
 11
13.9861
 21
8.2378
 31
0
  0
LINE
  8
LAYER1
  6
CONTINUOUS
 62
     7
 10
14.1528
 20
8.2239
 30
0
 11
14
 21
8.2239
 31
0
  0
LINE
  8
LAYER1
  6
CONTINUOUS
 62
     7
 10
14.1667
 20
8.2795
 30
0
 11
13.9861
 21
8.2795
 31
0
  0
LINE
  8
LAYER1
  6
CONTINUOUS
 62
     7
 10
14.1528
 20
8.2656
 30
0
 11
14
 21
8.2656
 31
0
  0
LINE
  8
LAYER1
  6
CONTINUOUS
 62
     7
 10
14.1667
 20
8.3073
 30
0
 11
13.9861
 21
8.3073
 31
0
  0
LINE
  8
LAYER1
  6
CONTINUOUS
 62
     7
 10
14.1528
 20
8.2934
 30
0
 11
14
 21
8.2934
 31
0
  0
LINE
  8
LAYER1
  6
CONTINUOUS
 62
     7
 10
14.1667
 20
8.3351
 30
0
 11
13.9861
 21
8.3351
 31
0
  0
LINE
  8
LAYER1
  6
CONTINUOUS
 62
     7
 10
14.1528
 20
8.3212
 30
0
 11
14
 21
8.3212
 31
0
  0
LINE
  8
LAYER1
  6
CONTINUOUS
 62
     7
 10
14.1667
 20
8.3628
 30
0
 11
13.9861
 21
8.3628
 31
0
  0
LINE
  8
LAYER1
  6
CONTINUOUS
 62
     7
 10
14.1528
 20
8.3489
 30
0
 11
14
 21
8.3489
 31
0
  0
LINE
  8
LAYER1
  6
CONTINUOUS
 62
     7
 10
14.1667
 20
8.4045
 30
0
 11
13.9861
 21
8.4045
 31
0
  0
LINE
  8
LAYER1
  6
CONTINUOUS
 62
     7
 10
14.1528
 20
8.3906
 30
0
 11
14
 21
8.3906
 31
0
  0
LINE
  8
LAYER1
  6
CONTINUOUS
 62
     7
 10
14.1667
 20
8.4184
 30
0
 11
13.9861
 21
8.4184
 31
0
  0
LINE
  8
LAYER1
  6
CONTINUOUS
 62
     7
 10
14.1667
 20
8.4184
 30
0
 11
14.1667
 21
6.4184
 31
0
  0
POLYLINE
  8
LAYER1
  6
CONTINUOUS
 62
     7
 66
     1
 70
     0
 40
0.001
 41
0.001
  0
VERTEX
  8
LAYER1
 10
13.9861
 20
6.4184
 30
0
 70
     0
  0
VERTEX
  8
LAYER1
 10
13.9861
 20
8.4184
 30
0
 70
     0
  0
VERTEX
  8
LAYER1
 10
13.9861
 20
8.4323
 30
0
 70
     0
  0
SEQEND
  0
ENDBLK
  8
LAYER1
  0
BLOCK
  8
LAYER1
  2
Group10
 70
     0
 10
0
 20
0
 30
0
  0
LINE
  8
LAYER1
  6
CONTINUOUS
 62
     7
 10
9.875
 20
5.6823
 30
0
 11
9.8889
 21
5.6684
 31
0
  0
LINE
  8
LAYER1
  6
CONTINUOUS
 62
     7
 10
9.875
 20
6.0573
 30
0
 11
9.875
 21
6.0712
 31
0
  0
ENDBLK
  8
LAYER1
  0
BLOCK
  8
LAYER1
  2
Group11
 70
     0
 10
0
 20
0
 30
0
  0
LINE
  8
LAYER1
  6
CONTINUOUS
 62
     7
 10
9.6111
 20
6.0712
 30
0
 11
14.3056
 21
6.0712
 31
0
  0
LINE
  8
LAYER1
  6
CONTINUOUS
 62
     7
 10
10.0833
 20
5.6823
 30
0
 11
9.875
 21
5.6823
 31
0
  0
LINE
  8
LAYER1
  6
CONTINUOUS
 62
     7
 10
10.0694
 20
5.6684
 30
0
 11
9.8889
 21
5.6684
 31
0
  0
LINE
  8
LAYER1
  6
CONTINUOUS
 62
     7
 10
10.0833
 20
5.7378
 30
0
 11
9.875
 21
5.7378
 31
0
  0
LINE
  8
LAYER1
  6
CONTINUOUS
 62
     7
 10
10.0694
 20
5.7239
 30
0
 11
9.8889
 21
5.7239
 31
0
  0
LINE
  8
LAYER1
  6
CONTINUOUS
 62
     7
 10
10.0833
 20
5.7656
 30
0
 11
9.875
 21
5.7656
 31
0
  0
LINE
  8
LAYER1
  6
CONTINUOUS
 62
     7
 10
10.0694
 20
5.7517
 30
0
 11
9.8889
 21
5.7517
 31
0
  0
LINE
  8
LAYER1
  6
CONTINUOUS
 62
     7
 10
10.0833
 20
5.7934
 30
0
 11
9.875
 21
5.7934
 31
0
  0
LINE
  8
LAYER1
  6
CONTINUOUS
 62
     7
 10
10.0694
 20
5.7795
 30
0
 11
9.8889
 21
5.7795
 31
0
  0
LINE
  8
LAYER1
  6
CONTINUOUS
 62
     7
 10
10.0833
 20
5.8212
 30
0
 11
9.875
 21
5.8212
 31
0
  0
LINE
  8
LAYER1
  6
CONTINUOUS
 62
     7
 10
10.0694
 20
5.8073
 30
0
 11
9.8889
 21
5.8073
 31
0
  0
LINE
  8
LAYER1
  6
CONTINUOUS
 62
     7
 10
10.0833
 20
5.8628
 30
0
 11
9.875
 21
5.8628
 31
0
  0
LINE
  8
LAYER1
  6
CONTINUOUS
 62
     7
 10
10.0694
 20
5.8489
 30
0
 11
9.8889
 21
5.8489
 31
0
  0
LINE
  8
LAYER1
  6
CONTINUOUS
 62
     7
 10
10.0833
 20
5.8906
 30
0
 11
9.875
 21
5.8906
 31
0
  0
LINE
  8
LAYER1
  6
CONTINUOUS
 62
     7
 10
10.0694
 20
5.8767
 30
0
 11
9.8889
 21
5.8767
 31
0
  0
LINE
  8
LAYER1
  6
CONTINUOUS
 62
     7
 10
10.0833
 20
5.9184
 30
0
 11
9.875
 21
5.9184
 31
0
  0
LINE
  8
LAYER1
  6
CONTINUOUS
 62
     7
 10
10.0694
 20
5.9045
 30
0
 11
9.8889
 21
5.9045
 31
0
  0
LINE
  8
LAYER1
  6
CONTINUOUS
 62
     7
 10
10.0833
 20
5.9462
 30
0
 11
9.875
 21
5.9462
 31
0
  0
LINE
  8
LAYER1
  6
CONTINUOUS
 62
     7
 10
10.0694
 20
5.9323
 30
0
 11
9.8889
 21
5.9323
 31
0
  0
LINE
  8
LAYER1
  6
CONTINUOUS
 62
     7
 10
10.0833
 20
5.9878
 30
0
 11
9.875
 21
5.9878
 31
0
  0
LINE
  8
LAYER1
  6
CONTINUOUS
 62
     7
 10
10.0694
 20
5.9739
 30
0
 11
9.8889
 21
5.9739
 31
0
  0
LINE
  8
LAYER1
  6
CONTINUOUS
 62
     7
 10
10.0833
 20
6.0156
 30
0
 11
9.875
 21
6.0156
 31
0
  0
LINE
  8
LAYER1
  6
CONTINUOUS
 62
     7
 10
10.0694
 20
6.0017
 30
0
 11
9.8889
 21
6.0017
 31
0
  0
LINE
  8
LAYER1
  6
CONTINUOUS
 62
     7
 10
10.0833
 20
6.0434
 30
0
 11
9.875
 21
6.0434
 31
0
  0
LINE
  8
LAYER1
  6
CONTINUOUS
 62
     7
 10
10.0694
 20
6.0295
 30
0
 11
9.8889
 21
6.0295
 31
0
  0
POLYLINE
  8
LAYER1
  6
CONTINUOUS
 62
     7
 66
     1
 70
     0
 40
0.001
 41
0.001
  0
VERTEX
  8
LAYER1
 10
10.0833
 20
6.0573
 30
0
 70
     0
  0
VERTEX
  8
LAYER1
 10
9.875
 20
6.0573
 30
0
 70
     0
  0
VERTEX
  8
LAYER1
 10
9.875
 20
5.6823
 30
0
 70
     0
  0
SEQEND
  0
POLYLINE
  8
LAYER1
  6
CONTINUOUS
 62
     7
 66
     1
 70
     0
 40
0.001
 41
0.001
  0
VERTEX
  8
LAYER1
 10
10.0833
 20
6.0573
 30
0
 70
     0
  0
VERTEX
  8
LAYER1
 10
10.0833
 20
5.6823
 30
0
 70
     0
  0
VERTEX
  8
LAYER1
 10
10.0694
 20
5.6684
 30
0
 70
     0
  0
SEQEND
  0
INSERT
  8
LAYER1
  2
Group10
 10
0
 20
0
 30
0
  0
ENDBLK
  8
LAYER1
  0
BLOCK
  8
LAYER1
  2
Group12
 70
     0
 10
0
 20
0
 30
0
  0
LINE
  8
LAYER1
  6
CONTINUOUS
 62
     7
 10
10.4167
 20
6.0573
 30
0
 11
10.4167
 21
5.5573
 31
0
  0
LINE
  8
LAYER1
  6
CONTINUOUS
 62
     7
 10
10.4167
 20
6.0573
 30
0
 11
10.4167
 21
6.0712
 31
0
  0
ENDBLK
  8
LAYER1
  0
BLOCK
  8
LAYER1
  2
Group13
 70
     0
 10
0
 20
0
 30
0
  0
LINE
  8
LAYER1
  6
CONTINUOUS
 62
     7
 10
10.0833
 20
6.0573
 30
0
 11
10.0833
 21
6.0712
 31
0
  0
LINE
  8
LAYER1
  6
CONTINUOUS
 62
     7
 10
10.625
 20
5.5573
 30
0
 11
10.4167
 21
5.5573
 31
0
  0
LINE
  8
LAYER1
  6
CONTINUOUS
 62
     7
 10
10.6111
 20
5.5434
 30
0
 11
10.4306
 21
5.5434
 31
0
  0
LINE
  8
LAYER1
  6
CONTINUOUS
 62
     7
 10
10.625
 20
5.6128
 30
0
 11
10.4167
 21
5.6128
 31
0
  0
LINE
  8
LAYER1
  6
CONTINUOUS
 62
     7
 10
10.6111
 20
5.5989
 30
0
 11
10.4306
 21
5.5989
 31
0
  0
LINE
  8
LAYER1
  6
CONTINUOUS
 62
     7
 10
10.625
 20
5.6406
 30
0
 11
10.4167
 21
5.6406
 31
0
  0
LINE
  8
LAYER1
  6
CONTINUOUS
 62
     7
 10
10.6111
 20
5.6267
 30
0
 11
10.4306
 21
5.6267
 31
0
  0
LINE
  8
LAYER1
  6
CONTINUOUS
 62
     7
 10
10.625
 20
5.6684
 30
0
 11
10.4167
 21
5.6684
 31
0
  0
LINE
  8
LAYER1
  6
CONTINUOUS
 62
     7
 10
10.6111
 20
5.6545
 30
0
 11
10.4306
 21
5.6545
 31
0
  0
LINE
  8
LAYER1
  6
CONTINUOUS
 62
     7
 10
10.625
 20
5.6962
 30
0
 11
10.4167
 21
5.6962
 31
0
  0
LINE
  8
LAYER1
  6
CONTINUOUS
 62
     7
 10
10.6111
 20
5.6823
 30
0
 11
10.4306
 21
5.6823
 31
0
  0
LINE
  8
LAYER1
  6
CONTINUOUS
 62
     7
 10
10.625
 20
5.7378
 30
0
 11
10.4167
 21
5.7378
 31
0
  0
LINE
  8
LAYER1
  6
CONTINUOUS
 62
     7
 10
10.6111
 20
5.7239
 30
0
 11
10.4306
 21
5.7239
 31
0
  0
LINE
  8
LAYER1
  6
CONTINUOUS
 62
     7
 10
10.625
 20
5.7656
 30
0
 11
10.4167
 21
5.7656
 31
0
  0
LINE
  8
LAYER1
  6
CONTINUOUS
 62
     7
 10
10.6111
 20
5.7517
 30
0
 11
10.4306
 21
5.7517
 31
0
  0
LINE
  8
LAYER1
  6
CONTINUOUS
 62
     7
 10
10.625
 20
5.7934
 30
0
 11
10.4167
 21
5.7934
 31
0
  0
LINE
  8
LAYER1
  6
CONTINUOUS
 62
     7
 10
10.6111
 20
5.7795
 30
0
 11
10.4306
 21
5.7795
 31
0
  0
LINE
  8
LAYER1
  6
CONTINUOUS
 62
     7
 10
10.625
 20
5.8212
 30
0
 11
10.4167
 21
5.8212
 31
0
  0
LINE
  8
LAYER1
  6
CONTINUOUS
 62
     7
 10
10.6111
 20
5.8073
 30
0
 11
10.4306
 21
5.8073
 31
0
  0
LINE
  8
LAYER1
  6
CONTINUOUS
 62
     7
 10
10.625
 20
5.8628
 30
0
 11
10.4167
 21
5.8628
 31
0
  0
LINE
  8
LAYER1
  6
CONTINUOUS
 62
     7
 10
10.6111
 20
5.8489
 30
0
 11
10.4306
 21
5.8489
 31
0
  0
LINE
  8
LAYER1
  6
CONTINUOUS
 62
     7
 10
10.625
 20
5.8906
 30
0
 11
10.4167
 21
5.8906
 31
0
  0
LINE
  8
LAYER1
  6
CONTINUOUS
 62
     7
 10
10.6111
 20
5.8767
 30
0
 11
10.4306
 21
5.8767
 31
0
  0
LINE
  8
LAYER1
  6
CONTINUOUS
 62
     7
 10
10.625
 20
5.9184
 30
0
 11
10.4167
 21
5.9184
 31
0
  0
LINE
  8
LAYER1
  6
CONTINUOUS
 62
     7
 10
10.6111
 20
5.9045
 30
0
 11
10.4306
 21
5.9045
 31
0
  0
LINE
  8
LAYER1
  6
CONTINUOUS
 62
     7
 10
10.625
 20
5.5573
 30
0
 11
10.6111
 21
5.5434
 31
0
  0
LINE
  8
LAYER1
  6
CONTINUOUS
 62
     7
 10
10.4167
 20
5.5573
 30
0
 11
10.4306
 21
5.5434
 31
0
  0
LINE
  8
LAYER1
  6
CONTINUOUS
 62
     7
 10
10.625
 20
5.9462
 30
0
 11
10.4167
 21
5.9462
 31
0
  0
LINE
  8
LAYER1
  6
CONTINUOUS
 62
     7
 10
10.6111
 20
5.9323
 30
0
 11
10.4306
 21
5.9323
 31
0
  0
LINE
  8
LAYER1
  6
CONTINUOUS
 62
     7
 10
10.625
 20
5.9878
 30
0
 11
10.4167
 21
5.9878
 31
0
  0
LINE
  8
LAYER1
  6
CONTINUOUS
 62
     7
 10
10.6111
 20
5.9739
 30
0
 11
10.4306
 21
5.9739
 31
0
  0
LINE
  8
LAYER1
  6
CONTINUOUS
 62
     7
 10
10.625
 20
6.0156
 30
0
 11
10.4167
 21
6.0156
 31
0
  0
LINE
  8
LAYER1
  6
CONTINUOUS
 62
     7
 10
10.6111
 20
6.0017
 30
0
 11
10.4306
 21
6.0017
 31
0
  0
LINE
  8
LAYER1
  6
CONTINUOUS
 62
     7
 10
10.625
 20
6.0434
 30
0
 11
10.4167
 21
6.0434
 31
0
  0
LINE
  8
LAYER1
  6
CONTINUOUS
 62
     7
 10
10.6111
 20
6.0295
 30
0
 11
10.4306
 21
6.0295
 31
0
  0
LINE
  8
LAYER1
  6
CONTINUOUS
 62
     7
 10
10.625
 20
6.0573
 30
0
 11
10.4167
 21
6.0573
 31
0
  0
LINE
  8
LAYER1
  6
CONTINUOUS
 62
     7
 10
10.625
 20
6.0573
 30
0
 11
10.625
 21
5.5573
 31
0
  0
INSERT
  8
LAYER1
  2
Group12
 10
0
 20
0
 30
0
  0
ENDBLK
  8
LAYER1
  0
BLOCK
  8
LAYER1
  2
Group14
 70
     0
 10
0
 20
0
 30
0
  0
POLYLINE
  8
LAYER1
  6
CONTINUOUS
 62
     7
 66
     1
 70
     0
 40
0.001
 41
0.001
  0
VERTEX
  8
LAYER1
 10
10.9444
 20
5.3073
 30
0
 70
     0
  0
VERTEX
  8
LAYER1
 10
10.9444
 20
6.0573
 30
0
 70
     0
  0
VERTEX
  8
LAYER1
 10
10.9306
 20
6.0712
 30
0
 70
     0
  0
SEQEND
  0
ENDBLK
  8
LAYER1
  0
BLOCK
  8
LAYER1
  2
Group15
 70
     0
 10
0
 20
0
 30
0
  0
LINE
  8
LAYER1
  6
CONTINUOUS
 62
     7
 10
10.625
 20
6.0573
 30
0
 11
10.625
 21
6.0712
 31
0
  0
LINE
  8
LAYER1
  6
CONTINUOUS
 62
     7
 10
11.1389
 20
5.3073
 30
0
 11
10.9444
 21
5.3073
 31
0
  0
LINE
  8
LAYER1
  6
CONTINUOUS
 62
     7
 10
11.125
 20
5.2934
 30
0
 11
10.9583
 21
5.2934
 31
0
  0
LINE
  8
LAYER1
  6
CONTINUOUS
 62
     7
 10
11.1389
 20
5.3628
 30
0
 11
10.9444
 21
5.3628
 31
0
  0
LINE
  8
LAYER1
  6
CONTINUOUS
 62
     7
 10
11.125
 20
5.3489
 30
0
 11
10.9583
 21
5.3489
 31
0
  0
LINE
  8
LAYER1
  6
CONTINUOUS
 62
     7
 10
11.1389
 20
5.3906
 30
0
 11
10.9444
 21
5.3906
 31
0
  0
LINE
  8
LAYER1
  6
CONTINUOUS
 62
     7
 10
11.125
 20
5.3767
 30
0
 11
10.9583
 21
5.3767
 31
0
  0
LINE
  8
LAYER1
  6
CONTINUOUS
 62
     7
 10
11.1389
 20
5.4184
 30
0
 11
10.9444
 21
5.4184
 31
0
  0
LINE
  8
LAYER1
  6
CONTINUOUS
 62
     7
 10
11.125
 20
5.4045
 30
0
 11
10.9583
 21
5.4045
 31
0
  0
LINE
  8
LAYER1
  6
CONTINUOUS
 62
     7
 10
11.1389
 20
5.4462
 30
0
 11
10.9444
 21
5.4462
 31
0
  0
LINE
  8
LAYER1
  6
CONTINUOUS
 62
     7
 10
11.125
 20
5.4323
 30
0
 11
10.9583
 21
5.4323
 31
0
  0
LINE
  8
LAYER1
  6
CONTINUOUS
 62
     7
 10
11.1389
 20
5.4878
 30
0
 11
10.9444
 21
5.4878
 31
0
  0
LINE
  8
LAYER1
  6
CONTINUOUS
 62
     7
 10
11.125
 20
5.4739
 30
0
 11
10.9583
 21
5.4739
 31
0
  0
LINE
  8
LAYER1
  6
CONTINUOUS
 62
     7
 10
11.1389
 20
5.5156
 30
0
 11
10.9444
 21
5.5156
 31
0
  0
LINE
  8
LAYER1
  6
CONTINUOUS
 62
     7
 10
11.125
 20
5.5017
 30
0
 11
10.9583
 21
5.5017
 31
0
  0
LINE
  8
LAYER1
  6
CONTINUOUS
 62
     7
 10
11.1389
 20
5.5434
 30
0
 11
10.9444
 21
5.5434
 31
0
  0
LINE
  8
LAYER1
  6
CONTINUOUS
 62
     7
 10
11.125
 20
5.5295
 30
0
 11
10.9583
 21
5.5295
 31
0
  0
LINE
  8
LAYER1
  6
CONTINUOUS
 62
     7
 10
11.1389
 20
5.5712
 30
0
 11
10.9444
 21
5.5712
 31
0
  0
LINE
  8
LAYER1
  6
CONTINUOUS
 62
     7
 10
11.125
 20
5.5573
 30
0
 11
10.9583
 21
5.5573
 31
0
  0
LINE
  8
LAYER1
  6
CONTINUOUS
 62
     7
 10
11.1389
 20
5.6128
 30
0
 11
10.9444
 21
5.6128
 31
0
  0
LINE
  8
LAYER1
  6
CONTINUOUS
 62
     7
 10
11.125
 20
5.5989
 30
0
 11
10.9583
 21
5.5989
 31
0
  0
LINE
  8
LAYER1
  6
CONTINUOUS
 62
     7
 10
11.1389
 20
5.6406
 30
0
 11
10.9444
 21
5.6406
 31
0
  0
LINE
  8
LAYER1
  6
CONTINUOUS
 62
     7
 10
11.125
 20
5.6267
 30
0
 11
10.9583
 21
5.6267
 31
0
  0
LINE
  8
LAYER1
  6
CONTINUOUS
 62
     7
 10
11.1389
 20
5.6684
 30
0
 11
10.9444
 21
5.6684
 31
0
  0
LINE
  8
LAYER1
  6
CONTINUOUS
 62
     7
 10
11.125
 20
5.6545
 30
0
 11
10.9583
 21
5.6545
 31
0
  0
LINE
  8
LAYER1
  6
CONTINUOUS
 62
     7
 10
11.1389
 20
5.3073
 30
0
 11
11.125
 21
5.2934
 31
0
  0
LINE
  8
LAYER1
  6
CONTINUOUS
 62
     7
 10
10.9444
 20
5.3073
 30
0
 11
10.9583
 21
5.2934
 31
0
  0
LINE
  8
LAYER1
  6
CONTINUOUS
 62
     7
 10
11.1389
 20
5.6962
 30
0
 11
10.9444
 21
5.6962
 31
0
  0
LINE
  8
LAYER1
  6
CONTINUOUS
 62
     7
 10
11.125
 20
5.6823
 30
0
 11
10.9583
 21
5.6823
 31
0
  0
LINE
  8
LAYER1
  6
CONTINUOUS
 62
     7
 10
11.1389
 20
5.7378
 30
0
 11
10.9444
 21
5.7378
 31
0
  0
LINE
  8
LAYER1
  6
CONTINUOUS
 62
     7
 10
11.125
 20
5.7239
 30
0
 11
10.9583
 21
5.7239
 31
0
  0
LINE
  8
LAYER1
  6
CONTINUOUS
 62
     7
 10
11.1389
 20
5.7656
 30
0
 11
10.9444
 21
5.7656
 31
0
  0
LINE
  8
LAYER1
  6
CONTINUOUS
 62
     7
 10
11.125
 20
5.7517
 30
0
 11
10.9583
 21
5.7517
 31
0
  0
LINE
  8
LAYER1
  6
CONTINUOUS
 62
     7
 10
11.1389
 20
5.7934
 30
0
 11
10.9444
 21
5.7934
 31
0
  0
LINE
  8
LAYER1
  6
CONTINUOUS
 62
     7
 10
11.125
 20
5.7795
 30
0
 11
10.9583
 21
5.7795
 31
0
  0
LINE
  8
LAYER1
  6
CONTINUOUS
 62
     7
 10
11.1389
 20
5.8212
 30
0
 11
10.9444
 21
5.8212
 31
0
  0
LINE
  8
LAYER1
  6
CONTINUOUS
 62
     7
 10
11.125
 20
5.8073
 30
0
 11
10.9583
 21
5.8073
 31
0
  0
LINE
  8
LAYER1
  6
CONTINUOUS
 62
     7
 10
11.1389
 20
5.8628
 30
0
 11
10.9444
 21
5.8628
 31
0
  0
LINE
  8
LAYER1
  6
CONTINUOUS
 62
     7
 10
11.125
 20
5.8489
 30
0
 11
10.9583
 21
5.8489
 31
0
  0
LINE
  8
LAYER1
  6
CONTINUOUS
 62
     7
 10
11.1389
 20
5.8906
 30
0
 11
10.9444
 21
5.8906
 31
0
  0
LINE
  8
LAYER1
  6
CONTINUOUS
 62
     7
 10
11.125
 20
5.8767
 30
0
 11
10.9583
 21
5.8767
 31
0
  0
LINE
  8
LAYER1
  6
CONTINUOUS
 62
     7
 10
11.1389
 20
5.9184
 30
0
 11
10.9444
 21
5.9184
 31
0
  0
LINE
  8
LAYER1
  6
CONTINUOUS
 62
     7
 10
11.125
 20
5.9045
 30
0
 11
10.9583
 21
5.9045
 31
0
  0
LINE
  8
LAYER1
  6
CONTINUOUS
 62
     7
 10
11.1389
 20
5.9462
 30
0
 11
10.9444
 21
5.9462
 31
0
  0
LINE
  8
LAYER1
  6
CONTINUOUS
 62
     7
 10
11.125
 20
5.9323
 30
0
 11
10.9583
 21
5.9323
 31
0
  0
LINE
  8
LAYER1
  6
CONTINUOUS
 62
     7
 10
11.1389
 20
5.9878
 30
0
 11
10.9444
 21
5.9878
 31
0
  0
LINE
  8
LAYER1
  6
CONTINUOUS
 62
     7
 10
11.125
 20
5.9739
 30
0
 11
10.9583
 21
5.9739
 31
0
  0
LINE
  8
LAYER1
  6
CONTINUOUS
 62
     7
 10
11.1389
 20
6.0156
 30
0
 11
10.9444
 21
6.0156
 31
0
  0
LINE
  8
LAYER1
  6
CONTINUOUS
 62
     7
 10
11.125
 20
6.0017
 30
0
 11
10.9583
 21
6.0017
 31
0
  0
LINE
  8
LAYER1
  6
CONTINUOUS
 62
     7
 10
11.1389
 20
6.0434
 30
0
 11
10.9444
 21
6.0434
 31
0
  0
LINE
  8
LAYER1
  6
CONTINUOUS
 62
     7
 10
11.125
 20
6.0295
 30
0
 11
10.9583
 21
6.0295
 31
0
  0
LINE
  8
LAYER1
  6
CONTINUOUS
 62
     7
 10
11.1389
 20
6.0573
 30
0
 11
10.9444
 21
6.0573
 31
0
  0
LINE
  8
LAYER1
  6
CONTINUOUS
 62
     7
 10
11.1389
 20
6.0573
 30
0
 11
11.1389
 21
5.3073
 31
0
  0
INSERT
  8
LAYER1
  2
Group14
 10
0
 20
0
 30
0
  0
ENDBLK
  8
LAYER1
  0
BLOCK
  8
LAYER1
  2
Group16
 70
     0
 10
0
 20
0
 30
0
  0
POLYLINE
  8
LAYER1
  6
CONTINUOUS
 62
     7
 66
     1
 70
     0
 40
0.001
 41
0.001
  0
VERTEX
  8
LAYER1
 10
11.5
 20
5.0573
 30
0
 70
     0
  0
VERTEX
  8
LAYER1
 10
11.5
 20
6.0573
 30
0
 70
     0
  0
VERTEX
  8
LAYER1
 10
11.4861
 20
6.0712
 30
0
 70
     0
  0
SEQEND
  0
ENDBLK
  8
LAYER1
  0
BLOCK
  8
LAYER1
  2
Group17
 70
     0
 10
0
 20
0
 30
0
  0
LINE
  8
LAYER1
  6
CONTINUOUS
 62
     7
 10
11.1389
 20
6.0573
 30
0
 11
11.1528
 21
6.0712
 31
0
  0
LINE
  8
LAYER1
  6
CONTINUOUS
 62
     7
 10
11.6944
 20
5.0573
 30
0
 11
11.5
 21
5.0573
 31
0
  0
LINE
  8
LAYER1
  6
CONTINUOUS
 62
     7
 10
11.6806
 20
5.0434
 30
0
 11
11.5139
 21
5.0434
 31
0
  0
LINE
  8
LAYER1
  6
CONTINUOUS
 62
     7
 10
11.6944
 20
5.1128
 30
0
 11
11.5
 21
5.1128
 31
0
  0
LINE
  8
LAYER1
  6
CONTINUOUS
 62
     7
 10
11.6806
 20
5.0989
 30
0
 11
11.5139
 21
5.0989
 31
0
  0
LINE
  8
LAYER1
  6
CONTINUOUS
 62
     7
 10
11.6944
 20
5.1406
 30
0
 11
11.5
 21
5.1406
 31
0
  0
LINE
  8
LAYER1
  6
CONTINUOUS
 62
     7
 10
11.6806
 20
5.1267
 30
0
 11
11.5139
 21
5.1267
 31
0
  0
LINE
  8
LAYER1
  6
CONTINUOUS
 62
     7
 10
11.6944
 20
5.1684
 30
0
 11
11.5
 21
5.1684
 31
0
  0
LINE
  8
LAYER1
  6
CONTINUOUS
 62
     7
 10
11.6806
 20
5.1545
 30
0
 11
11.5139
 21
5.1545
 31
0
  0
LINE
  8
LAYER1
  6
CONTINUOUS
 62
     7
 10
11.6944
 20
5.1962
 30
0
 11
11.5
 21
5.1962
 31
0
  0
LINE
  8
LAYER1
  6
CONTINUOUS
 62
     7
 10
11.6806
 20
5.1823
 30
0
 11
11.5139
 21
5.1823
 31
0
  0
LINE
  8
LAYER1
  6
CONTINUOUS
 62
     7
 10
11.6944
 20
5.2378
 30
0
 11
11.5
 21
5.2378
 31
0
  0
LINE
  8
LAYER1
  6
CONTINUOUS
 62
     7
 10
11.6806
 20
5.2239
 30
0
 11
11.5139
 21
5.2239
 31
0
  0
LINE
  8
LAYER1
  6
CONTINUOUS
 62
     7
 10
11.6944
 20
5.2656
 30
0
 11
11.5
 21
5.2656
 31
0
  0
LINE
  8
LAYER1
  6
CONTINUOUS
 62
     7
 10
11.6806
 20
5.2517
 30
0
 11
11.5139
 21
5.2517
 31
0
  0
LINE
  8
LAYER1
  6
CONTINUOUS
 62
     7
 10
11.6944
 20
5.2934
 30
0
 11
11.5
 21
5.2934
 31
0
  0
LINE
  8
LAYER1
  6
CONTINUOUS
 62
     7
 10
11.6806
 20
5.2795
 30
0
 11
11.5139
 21
5.2795
 31
0
  0
LINE
  8
LAYER1
  6
CONTINUOUS
 62
     7
 10
11.6944
 20
5.3212
 30
0
 11
11.5
 21
5.3212
 31
0
  0
LINE
  8
LAYER1
  6
CONTINUOUS
 62
     7
 10
11.6806
 20
5.3073
 30
0
 11
11.5139
 21
5.3073
 31
0
  0
LINE
  8
LAYER1
  6
CONTINUOUS
 62
     7
 10
11.6944
 20
5.3628
 30
0
 11
11.5
 21
5.3628
 31
0
  0
LINE
  8
LAYER1
  6
CONTINUOUS
 62
     7
 10
11.6806
 20
5.3489
 30
0
 11
11.5139
 21
5.3489
 31
0
  0
LINE
  8
LAYER1
  6
CONTINUOUS
 62
     7
 10
11.6944
 20
5.3906
 30
0
 11
11.5
 21
5.3906
 31
0
  0
LINE
  8
LAYER1
  6
CONTINUOUS
 62
     7
 10
11.6806
 20
5.3767
 30
0
 11
11.5139
 21
5.3767
 31
0
  0
LINE
  8
LAYER1
  6
CONTINUOUS
 62
     7
 10
11.6944
 20
5.4184
 30
0
 11
11.5
 21
5.4184
 31
0
  0
LINE
  8
LAYER1
  6
CONTINUOUS
 62
     7
 10
11.6806
 20
5.4045
 30
0
 11
11.5139
 21
5.4045
 31
0
  0
LINE
  8
LAYER1
  6
CONTINUOUS
 62
     7
 10
11.6944
 20
5.0573
 30
0
 11
11.6806
 21
5.0434
 31
0
  0
LINE
  8
LAYER1
  6
CONTINUOUS
 62
     7
 10
11.5
 20
5.0573
 30
0
 11
11.5139
 21
5.0434
 31
0
  0
LINE
  8
LAYER1
  6
CONTINUOUS
 62
     7
 10
11.6944
 20
5.4462
 30
0
 11
11.5
 21
5.4462
 31
0
  0
LINE
  8
LAYER1
  6
CONTINUOUS
 62
     7
 10
11.6806
 20
5.4323
 30
0
 11
11.5139
 21
5.4323
 31
0
  0
LINE
  8
LAYER1
  6
CONTINUOUS
 62
     7
 10
11.6944
 20
5.4878
 30
0
 11
11.5
 21
5.4878
 31
0
  0
LINE
  8
LAYER1
  6
CONTINUOUS
 62
     7
 10
11.6806
 20
5.4739
 30
0
 11
11.5139
 21
5.4739
 31
0
  0
LINE
  8
LAYER1
  6
CONTINUOUS
 62
     7
 10
11.6944
 20
5.5156
 30
0
 11
11.5
 21
5.5156
 31
0
  0
LINE
  8
LAYER1
  6
CONTINUOUS
 62
     7
 10
11.6806
 20
5.5017
 30
0
 11
11.5139
 21
5.5017
 31
0
  0
LINE
  8
LAYER1
  6
CONTINUOUS
 62
     7
 10
11.6944
 20
5.5434
 30
0
 11
11.5
 21
5.5434
 31
0
  0
LINE
  8
LAYER1
  6
CONTINUOUS
 62
     7
 10
11.6806
 20
5.5295
 30
0
 11
11.5139
 21
5.5295
 31
0
  0
LINE
  8
LAYER1
  6
CONTINUOUS
 62
     7
 10
11.6944
 20
5.5712
 30
0
 11
11.5
 21
5.5712
 31
0
  0
LINE
  8
LAYER1
  6
CONTINUOUS
 62
     7
 10
11.6806
 20
5.5573
 30
0
 11
11.5139
 21
5.5573
 31
0
  0
LINE
  8
LAYER1
  6
CONTINUOUS
 62
     7
 10
11.6944
 20
5.6128
 30
0
 11
11.5
 21
5.6128
 31
0
  0
LINE
  8
LAYER1
  6
CONTINUOUS
 62
     7
 10
11.6806
 20
5.5989
 30
0
 11
11.5139
 21
5.5989
 31
0
  0
LINE
  8
LAYER1
  6
CONTINUOUS
 62
     7
 10
11.6944
 20
5.6406
 30
0
 11
11.5
 21
5.6406
 31
0
  0
LINE
  8
LAYER1
  6
CONTINUOUS
 62
     7
 10
11.6806
 20
5.6267
 30
0
 11
11.5139
 21
5.6267
 31
0
  0
LINE
  8
LAYER1
  6
CONTINUOUS
 62
     7
 10
11.6944
 20
5.6684
 30
0
 11
11.5
 21
5.6684
 31
0
  0
LINE
  8
LAYER1
  6
CONTINUOUS
 62
     7
 10
11.6806
 20
5.6545
 30
0
 11
11.5139
 21
5.6545
 31
0
  0
LINE
  8
LAYER1
  6
CONTINUOUS
 62
     7
 10
11.6944
 20
5.6962
 30
0
 11
11.5
 21
5.6962
 31
0
  0
LINE
  8
LAYER1
  6
CONTINUOUS
 62
     7
 10
11.6806
 20
5.6823
 30
0
 11
11.5139
 21
5.6823
 31
0
  0
LINE
  8
LAYER1
  6
CONTINUOUS
 62
     7
 10
11.6944
 20
5.7378
 30
0
 11
11.5
 21
5.7378
 31
0
  0
LINE
  8
LAYER1
  6
CONTINUOUS
 62
     7
 10
11.6806
 20
5.7239
 30
0
 11
11.5139
 21
5.7239
 31
0
  0
LINE
  8
LAYER1
  6
CONTINUOUS
 62
     7
 10
11.6944
 20
5.7656
 30
0
 11
11.5
 21
5.7656
 31
0
  0
LINE
  8
LAYER1
  6
CONTINUOUS
 62
     7
 10
11.6806
 20
5.7517
 30
0
 11
11.5139
 21
5.7517
 31
0
  0
LINE
  8
LAYER1
  6
CONTINUOUS
 62
     7
 10
11.6944
 20
5.7934
 30
0
 11
11.5
 21
5.7934
 31
0
  0
LINE
  8
LAYER1
  6
CONTINUOUS
 62
     7
 10
11.6806
 20
5.7795
 30
0
 11
11.5139
 21
5.7795
 31
0
  0
LINE
  8
LAYER1
  6
CONTINUOUS
 62
     7
 10
11.6944
 20
5.8351
 30
0
 11
11.5
 21
5.8351
 31
0
  0
LINE
  8
LAYER1
  6
CONTINUOUS
 62
     7
 10
11.6806
 20
5.8073
 30
0
 11
11.5139
 21
5.8073
 31
0
  0
LINE
  8
LAYER1
  6
CONTINUOUS
 62
     7
 10
11.6944
 20
5.8628
 30
0
 11
11.5
 21
5.8628
 31
0
  0
LINE
  8
LAYER1
  6
CONTINUOUS
 62
     7
 10
11.6806
 20
5.8489
 30
0
 11
11.5139
 21
5.8489
 31
0
  0
LINE
  8
LAYER1
  6
CONTINUOUS
 62
     7
 10
11.6944
 20
5.8906
 30
0
 11
11.5
 21
5.8906
 31
0
  0
LINE
  8
LAYER1
  6
CONTINUOUS
 62
     7
 10
11.6806
 20
5.8767
 30
0
 11
11.5139
 21
5.8767
 31
0
  0
LINE
  8
LAYER1
  6
CONTINUOUS
 62
     7
 10
11.6944
 20
5.9184
 30
0
 11
11.5
 21
5.9184
 31
0
  0
LINE
  8
LAYER1
  6
CONTINUOUS
 62
     7
 10
11.6806
 20
5.9045
 30
0
 11
11.5139
 21
5.9045
 31
0
  0
LINE
  8
LAYER1
  6
CONTINUOUS
 62
     7
 10
11.6944
 20
5.9601
 30
0
 11
11.5
 21
5.9601
 31
0
  0
LINE
  8
LAYER1
  6
CONTINUOUS
 62
     7
 10
11.6806
 20
5.9323
 30
0
 11
11.5139
 21
5.9323
 31
0
  0
LINE
  8
LAYER1
  6
CONTINUOUS
 62
     7
 10
11.6944
 20
5.9878
 30
0
 11
11.5
 21
5.9878
 31
0
  0
LINE
  8
LAYER1
  6
CONTINUOUS
 62
     7
 10
11.6806
 20
5.9739
 30
0
 11
11.5139
 21
5.9739
 31
0
  0
LINE
  8
LAYER1
  6
CONTINUOUS
 62
     7
 10
11.6944
 20
6.0156
 30
0
 11
11.5
 21
6.0156
 31
0
  0
LINE
  8
LAYER1
  6
CONTINUOUS
 62
     7
 10
11.6806
 20
6.0017
 30
0
 11
11.5139
 21
6.0017
 31
0
  0
LINE
  8
LAYER1
  6
CONTINUOUS
 62
     7
 10
11.6944
 20
6.0434
 30
0
 11
11.5
 21
6.0434
 31
0
  0
LINE
  8
LAYER1
  6
CONTINUOUS
 62
     7
 10
11.6806
 20
6.0295
 30
0
 11
11.5139
 21
6.0295
 31
0
  0
LINE
  8
LAYER1
  6
CONTINUOUS
 62
     7
 10
11.6944
 20
6.0573
 30
0
 11
11.5
 21
6.0573
 31
0
  0
LINE
  8
LAYER1
  6
CONTINUOUS
 62
     7
 10
11.6944
 20
6.0573
 30
0
 11
11.6944
 21
5.0573
 31
0
  0
INSERT
  8
LAYER1
  2
Group16
 10
0
 20
0
 30
0
  0
ENDBLK
  8
LAYER1
  0
BLOCK
  8
LAYER1
  2
Group18
 70
     0
 10
0
 20
0
 30
0
  0
LINE
  8
LAYER1
  6
CONTINUOUS
 62
     7
 10
12.0972
 20
6.0434
 30
0
 11
12.0972
 21
4.8073
 31
0
  0
LINE
  8
LAYER1
  6
CONTINUOUS
 62
     7
 10
12.0972
 20
6.0573
 30
0
 11
12.0972
 21
6.0712
 31
0
  0
ENDBLK
  8
LAYER1
  0
BLOCK
  8
LAYER1
  2
Group19
 70
     0
 10
0
 20
0
 30
0
  0
LINE
  8
LAYER1
  6
CONTINUOUS
 62
     7
 10
11.6944
 20
6.0573
 30
0
 11
11.7083
 21
6.0712
 31
0
  0
LINE
  8
LAYER1
  6
CONTINUOUS
 62
     7
 10
12.3056
 20
4.8073
 30
0
 11
12.0972
 21
4.8073
 31
0
  0
LINE
  8
LAYER1
  6
CONTINUOUS
 62
     7
 10
12.2917
 20
4.7934
 30
0
 11
12.1111
 21
4.7934
 31
0
  0
LINE
  8
LAYER1
  6
CONTINUOUS
 62
     7
 10
12.3056
 20
4.8628
 30
0
 11
12.0972
 21
4.8628
 31
0
  0
LINE
  8
LAYER1
  6
CONTINUOUS
 62
     7
 10
12.2917
 20
4.8489
 30
0
 11
12.1111
 21
4.8489
 31
0
  0
LINE
  8
LAYER1
  6
CONTINUOUS
 62
     7
 10
12.3056
 20
4.8906
 30
0
 11
12.0972
 21
4.8906
 31
0
  0
LINE
  8
LAYER1
  6
CONTINUOUS
 62
     7
 10
12.2917
 20
4.8767
 30
0
 11
12.1111
 21
4.8767
 31
0
  0
LINE
  8
LAYER1
  6
CONTINUOUS
 62
     7
 10
12.3056
 20
4.9184
 30
0
 11
12.0972
 21
4.9184
 31
0
  0
LINE
  8
LAYER1
  6
CONTINUOUS
 62
     7
 10
12.2917
 20
4.9045
 30
0
 11
12.1111
 21
4.9045
 31
0
  0
LINE
  8
LAYER1
  6
CONTINUOUS
 62
     7
 10
12.3056
 20
4.9462
 30
0
 11
12.0972
 21
4.9462
 31
0
  0
LINE
  8
LAYER1
  6
CONTINUOUS
 62
     7
 10
12.2917
 20
4.9323
 30
0
 11
12.1111
 21
4.9323
 31
0
  0
LINE
  8
LAYER1
  6
CONTINUOUS
 62
     7
 10
12.3056
 20
4.9878
 30
0
 11
12.0972
 21
4.9878
 31
0
  0
LINE
  8
LAYER1
  6
CONTINUOUS
 62
     7
 10
12.2917
 20
4.9739
 30
0
 11
12.1111
 21
4.9739
 31
0
  0
LINE
  8
LAYER1
  6
CONTINUOUS
 62
     7
 10
12.3056
 20
5.0156
 30
0
 11
12.0972
 21
5.0156
 31
0
  0
LINE
  8
LAYER1
  6
CONTINUOUS
 62
     7
 10
12.2917
 20
5.0017
 30
0
 11
12.1111
 21
5.0017
 31
0
  0
LINE
  8
LAYER1
  6
CONTINUOUS
 62
     7
 10
12.3056
 20
5.0434
 30
0
 11
12.0972
 21
5.0434
 31
0
  0
LINE
  8
LAYER1
  6
CONTINUOUS
 62
     7
 10
12.2917
 20
5.0295
 30
0
 11
12.1111
 21
5.0295
 31
0
  0
LINE
  8
LAYER1
  6
CONTINUOUS
 62
     7
 10
12.3056
 20
5.0712
 30
0
 11
12.0972
 21
5.0712
 31
0
  0
LINE
  8
LAYER1
  6
CONTINUOUS
 62
     7
 10
12.2917
 20
5.0573
 30
0
 11
12.1111
 21
5.0573
 31
0
  0
LINE
  8
LAYER1
  6
CONTINUOUS
 62
     7
 10
12.3056
 20
5.1128
 30
0
 11
12.0972
 21
5.1128
 31
0
  0
LINE
  8
LAYER1
  6
CONTINUOUS
 62
     7
 10
12.2917
 20
5.0989
 30
0
 11
12.1111
 21
5.0989
 31
0
  0
LINE
  8
LAYER1
  6
CONTINUOUS
 62
     7
 10
12.3056
 20
5.1406
 30
0
 11
12.0972
 21
5.1406
 31
0
  0
LINE
  8
LAYER1
  6
CONTINUOUS
 62
     7
 10
12.2917
 20
5.1267
 30
0
 11
12.1111
 21
5.1267
 31
0
  0
LINE
  8
LAYER1
  6
CONTINUOUS
 62
     7
 10
12.3056
 20
5.1684
 30
0
 11
12.0972
 21
5.1684
 31
0
  0
LINE
  8
LAYER1
  6
CONTINUOUS
 62
     7
 10
12.2917
 20
5.1545
 30
0
 11
12.1111
 21
5.1545
 31
0
  0
LINE
  8
LAYER1
  6
CONTINUOUS
 62
     7
 10
12.3056
 20
4.8073
 30
0
 11
12.2917
 21
4.7934
 31
0
  0
LINE
  8
LAYER1
  6
CONTINUOUS
 62
     7
 10
12.0972
 20
4.8073
 30
0
 11
12.1111
 21
4.7934
 31
0
  0
LINE
  8
LAYER1
  6
CONTINUOUS
 62
     7
 10
12.3056
 20
5.1962
 30
0
 11
12.0972
 21
5.1962
 31
0
  0
LINE
  8
LAYER1
  6
CONTINUOUS
 62
     7
 10
12.2917
 20
5.1823
 30
0
 11
12.1111
 21
5.1823
 31
0
  0
LINE
  8
LAYER1
  6
CONTINUOUS
 62
     7
 10
12.3056
 20
5.2378
 30
0
 11
12.0972
 21
5.2378
 31
0
  0
LINE
  8
LAYER1
  6
CONTINUOUS
 62
     7
 10
12.2917
 20
5.2239
 30
0
 11
12.1111
 21
5.2239
 31
0
  0
LINE
  8
LAYER1
  6
CONTINUOUS
 62
     7
 10
12.3056
 20
5.2656
 30
0
 11
12.0972
 21
5.2656
 31
0
  0
LINE
  8
LAYER1
  6
CONTINUOUS
 62
     7
 10
12.2917
 20
5.2517
 30
0
 11
12.1111
 21
5.2517
 31
0
  0
LINE
  8
LAYER1
  6
CONTINUOUS
 62
     7
 10
12.3056
 20
5.2934
 30
0
 11
12.0972
 21
5.2934
 31
0
  0
LINE
  8
LAYER1
  6
CONTINUOUS
 62
     7
 10
12.2917
 20
5.2795
 30
0
 11
12.1111
 21
5.2795
 31
0
  0
LINE
  8
LAYER1
  6
CONTINUOUS
 62
     7
 10
12.3056
 20
5.3212
 30
0
 11
12.0972
 21
5.3212
 31
0
  0
LINE
  8
LAYER1
  6
CONTINUOUS
 62
     7
 10
12.2917
 20
5.3073
 30
0
 11
12.1111
 21
5.3073
 31
0
  0
LINE
  8
LAYER1
  6
CONTINUOUS
 62
     7
 10
12.3056
 20
5.3628
 30
0
 11
12.0972
 21
5.3628
 31
0
  0
LINE
  8
LAYER1
  6
CONTINUOUS
 62
     7
 10
12.2917
 20
5.3489
 30
0
 11
12.1111
 21
5.3489
 31
0
  0
LINE
  8
LAYER1
  6
CONTINUOUS
 62
     7
 10
12.3056
 20
5.3906
 30
0
 11
12.0972
 21
5.3906
 31
0
  0
LINE
  8
LAYER1
  6
CONTINUOUS
 62
     7
 10
12.2917
 20
5.3767
 30
0
 11
12.1111
 21
5.3767
 31
0
  0
LINE
  8
LAYER1
  6
CONTINUOUS
 62
     7
 10
12.3056
 20
5.4184
 30
0
 11
12.0972
 21
5.4184
 31
0
  0
LINE
  8
LAYER1
  6
CONTINUOUS
 62
     7
 10
12.2917
 20
5.4045
 30
0
 11
12.1111
 21
5.4045
 31
0
  0
LINE
  8
LAYER1
  6
CONTINUOUS
 62
     7
 10
12.3056
 20
5.4462
 30
0
 11
12.0972
 21
5.4462
 31
0
  0
LINE
  8
LAYER1
  6
CONTINUOUS
 62
     7
 10
12.2917
 20
5.4323
 30
0
 11
12.1111
 21
5.4323
 31
0
  0
LINE
  8
LAYER1
  6
CONTINUOUS
 62
     7
 10
12.3056
 20
5.4878
 30
0
 11
12.0972
 21
5.4878
 31
0
  0
LINE
  8
LAYER1
  6
CONTINUOUS
 62
     7
 10
12.2917
 20
5.4739
 30
0
 11
12.1111
 21
5.4739
 31
0
  0
LINE
  8
LAYER1
  6
CONTINUOUS
 62
     7
 10
12.3056
 20
5.5156
 30
0
 11
12.0972
 21
5.5156
 31
0
  0
LINE
  8
LAYER1
  6
CONTINUOUS
 62
     7
 10
12.2917
 20
5.5017
 30
0
 11
12.1111
 21
5.5017
 31
0
  0
LINE
  8
LAYER1
  6
CONTINUOUS
 62
     7
 10
12.3056
 20
5.5434
 30
0
 11
12.0972
 21
5.5434
 31
0
  0
LINE
  8
LAYER1
  6
CONTINUOUS
 62
     7
 10
12.2917
 20
5.5295
 30
0
 11
12.1111
 21
5.5295
 31
0
  0
LINE
  8
LAYER1
  6
CONTINUOUS
 62
     7
 10
12.3056
 20
5.5851
 30
0
 11
12.0972
 21
5.5851
 31
0
  0
LINE
  8
LAYER1
  6
CONTINUOUS
 62
     7
 10
12.2917
 20
5.5573
 30
0
 11
12.1111
 21
5.5573
 31
0
  0
LINE
  8
LAYER1
  6
CONTINUOUS
 62
     7
 10
12.3056
 20
5.6128
 30
0
 11
12.0972
 21
5.6128
 31
0
  0
LINE
  8
LAYER1
  6
CONTINUOUS
 62
     7
 10
12.2917
 20
5.5989
 30
0
 11
12.1111
 21
5.5989
 31
0
  0
LINE
  8
LAYER1
  6
CONTINUOUS
 62
     7
 10
12.3056
 20
5.6406
 30
0
 11
12.0972
 21
5.6406
 31
0
  0
LINE
  8
LAYER1
  6
CONTINUOUS
 62
     7
 10
12.2917
 20
5.6267
 30
0
 11
12.1111
 21
5.6267
 31
0
  0
LINE
  8
LAYER1
  6
CONTINUOUS
 62
     7
 10
12.3056
 20
5.6684
 30
0
 11
12.0972
 21
5.6684
 31
0
  0
LINE
  8
LAYER1
  6
CONTINUOUS
 62
     7
 10
12.2917
 20
5.6545
 30
0
 11
12.1111
 21
5.6545
 31
0
  0
LINE
  8
LAYER1
  6
CONTINUOUS
 62
     7
 10
12.3056
 20
5.7101
 30
0
 11
12.0972
 21
5.7101
 31
0
  0
LINE
  8
LAYER1
  6
CONTINUOUS
 62
     7
 10
12.2917
 20
5.6823
 30
0
 11
12.1111
 21
5.6823
 31
0
  0
LINE
  8
LAYER1
  6
CONTINUOUS
 62
     7
 10
12.3056
 20
5.7378
 30
0
 11
12.0972
 21
5.7378
 31
0
  0
LINE
  8
LAYER1
  6
CONTINUOUS
 62
     7
 10
12.2917
 20
5.7239
 30
0
 11
12.1111
 21
5.7239
 31
0
  0
LINE
  8
LAYER1
  6
CONTINUOUS
 62
     7
 10
12.3056
 20
5.7656
 30
0
 11
12.0972
 21
5.7656
 31
0
  0
LINE
  8
LAYER1
  6
CONTINUOUS
 62
     7
 10
12.2917
 20
5.7517
 30
0
 11
12.1111
 21
5.7517
 31
0
  0
LINE
  8
LAYER1
  6
CONTINUOUS
 62
     7
 10
12.3056
 20
5.7934
 30
0
 11
12.0972
 21
5.7934
 31
0
  0
LINE
  8
LAYER1
  6
CONTINUOUS
 62
     7
 10
12.2917
 20
5.7795
 30
0
 11
12.1111
 21
5.7795
 31
0
  0
LINE
  8
LAYER1
  6
CONTINUOUS
 62
     7
 10
12.3056
 20
5.8351
 30
0
 11
12.0972
 21
5.8351
 31
0
  0
LINE
  8
LAYER1
  6
CONTINUOUS
 62
     7
 10
12.2917
 20
5.8073
 30
0
 11
12.1111
 21
5.8073
 31
0
  0
LINE
  8
LAYER1
  6
CONTINUOUS
 62
     7
 10
12.3056
 20
5.8628
 30
0
 11
12.0972
 21
5.8628
 31
0
  0
LINE
  8
LAYER1
  6
CONTINUOUS
 62
     7
 10
12.2917
 20
5.8489
 30
0
 11
12.1111
 21
5.8489
 31
0
  0
LINE
  8
LAYER1
  6
CONTINUOUS
 62
     7
 10
12.3056
 20
5.8906
 30
0
 11
12.0972
 21
5.8906
 31
0
  0
LINE
  8
LAYER1
  6
CONTINUOUS
 62
     7
 10
12.2917
 20
5.8767
 30
0
 11
12.1111
 21
5.8767
 31
0
  0
LINE
  8
LAYER1
  6
CONTINUOUS
 62
     7
 10
12.3056
 20
5.9184
 30
0
 11
12.0972
 21
5.9184
 31
0
  0
LINE
  8
LAYER1
  6
CONTINUOUS
 62
     7
 10
12.2917
 20
5.9045
 30
0
 11
12.1111
 21
5.9045
 31
0
  0
LINE
  8
LAYER1
  6
CONTINUOUS
 62
     7
 10
12.3056
 20
5.9601
 30
0
 11
12.0972
 21
5.9601
 31
0
  0
LINE
  8
LAYER1
  6
CONTINUOUS
 62
     7
 10
12.2917
 20
5.9323
 30
0
 11
12.1111
 21
5.9323
 31
0
  0
LINE
  8
LAYER1
  6
CONTINUOUS
 62
     7
 10
12.3056
 20
5.9878
 30
0
 11
12.0972
 21
5.9878
 31
0
  0
LINE
  8
LAYER1
  6
CONTINUOUS
 62
     7
 10
12.2917
 20
5.9739
 30
0
 11
12.1111
 21
5.9739
 31
0
  0
LINE
  8
LAYER1
  6
CONTINUOUS
 62
     7
 10
12.3056
 20
6.0156
 30
0
 11
12.0972
 21
6.0156
 31
0
  0
LINE
  8
LAYER1
  6
CONTINUOUS
 62
     7
 10
12.2917
 20
6.0017
 30
0
 11
12.1111
 21
6.0017
 31
0
  0
LINE
  8
LAYER1
  6
CONTINUOUS
 62
     7
 10
12.3056
 20
6.0434
 30
0
 11
12.0972
 21
6.0434
 31
0
  0
LINE
  8
LAYER1
  6
CONTINUOUS
 62
     7
 10
12.2917
 20
6.0295
 30
0
 11
12.1111
 21
6.0295
 31
0
  0
LINE
  8
LAYER1
  6
CONTINUOUS
 62
     7
 10
12.3056
 20
6.0573
 30
0
 11
12.0972
 21
6.0573
 31
0
  0
LINE
  8
LAYER1
  6
CONTINUOUS
 62
     7
 10
12.3056
 20
6.0573
 30
0
 11
12.3056
 21
4.8073
 31
0
  0
INSERT
  8
LAYER1
  2
Group18
 10
0
 20
0
 30
0
  0
ENDBLK
  8
LAYER1
  0
BLOCK
  8
LAYER1
  2
Group20
 70
     0
 10
0
 20
0
 30
0
  0
POLYLINE
  8
LAYER1
  6
CONTINUOUS
 62
     7
 66
     1
 70
     0
 40
0.001
 41
0.001
  0
VERTEX
  8
LAYER1
 10
12.6528
 20
4.5573
 30
0
 70
     0
  0
VERTEX
  8
LAYER1
 10
12.6528
 20
6.0573
 30
0
 70
     0
  0
VERTEX
  8
LAYER1
 10
12.6528
 20
6.0712
 30
0
 70
     0
  0
SEQEND
  0
ENDBLK
  8
LAYER1
  0
BLOCK
  8
LAYER1
  2
Group21
 70
     0
 10
0
 20
0
 30
0
  0
LINE
  8
LAYER1
  6
CONTINUOUS
 62
     7
 10
12.3056
 20
6.0573
 30
0
 11
12.3056
 21
6.0712
 31
0
  0
LINE
  8
LAYER1
  6
CONTINUOUS
 62
     7
 10
12.8611
 20
4.5573
 30
0
 11
12.6528
 21
4.5573
 31
0
  0
LINE
  8
LAYER1
  6
CONTINUOUS
 62
     7
 10
12.8472
 20
4.5434
 30
0
 11
12.6806
 21
4.5434
 31
0
  0
LINE
  8
LAYER1
  6
CONTINUOUS
 62
     7
 10
12.8611
 20
4.6128
 30
0
 11
12.6528
 21
4.6128
 31
0
  0
LINE
  8
LAYER1
  6
CONTINUOUS
 62
     7
 10
12.8472
 20
4.5989
 30
0
 11
12.6806
 21
4.5989
 31
0
  0
LINE
  8
LAYER1
  6
CONTINUOUS
 62
     7
 10
12.8611
 20
4.6406
 30
0
 11
12.6528
 21
4.6406
 31
0
  0
LINE
  8
LAYER1
  6
CONTINUOUS
 62
     7
 10
12.8472
 20
4.6267
 30
0
 11
12.6806
 21
4.6267
 31
0
  0
LINE
  8
LAYER1
  6
CONTINUOUS
 62
     7
 10
12.8611
 20
4.6684
 30
0
 11
12.6528
 21
4.6684
 31
0
  0
LINE
  8
LAYER1
  6
CONTINUOUS
 62
     7
 10
12.8472
 20
4.6545
 30
0
 11
12.6806
 21
4.6545
 31
0
  0
LINE
  8
LAYER1
  6
CONTINUOUS
 62
     7
 10
12.8611
 20
4.6962
 30
0
 11
12.6528
 21
4.6962
 31
0
  0
LINE
  8
LAYER1
  6
CONTINUOUS
 62
     7
 10
12.8472
 20
4.6823
 30
0
 11
12.6806
 21
4.6823
 31
0
  0
LINE
  8
LAYER1
  6
CONTINUOUS
 62
     7
 10
12.8611
 20
4.7378
 30
0
 11
12.6528
 21
4.7378
 31
0
  0
LINE
  8
LAYER1
  6
CONTINUOUS
 62
     7
 10
12.8472
 20
4.7239
 30
0
 11
12.6806
 21
4.7239
 31
0
  0
LINE
  8
LAYER1
  6
CONTINUOUS
 62
     7
 10
12.8611
 20
4.7656
 30
0
 11
12.6528
 21
4.7656
 31
0
  0
LINE
  8
LAYER1
  6
CONTINUOUS
 62
     7
 10
12.8472
 20
4.7517
 30
0
 11
12.6806
 21
4.7517
 31
0
  0
LINE
  8
LAYER1
  6
CONTINUOUS
 62
     7
 10
12.8611
 20
4.7934
 30
0
 11
12.6528
 21
4.7934
 31
0
  0
LINE
  8
LAYER1
  6
CONTINUOUS
 62
     7
 10
12.8472
 20
4.7795
 30
0
 11
12.6806
 21
4.7795
 31
0
  0
LINE
  8
LAYER1
  6
CONTINUOUS
 62
     7
 10
12.8611
 20
4.8212
 30
0
 11
12.6528
 21
4.8212
 31
0
  0
LINE
  8
LAYER1
  6
CONTINUOUS
 62
     7
 10
12.8472
 20
4.8073
 30
0
 11
12.6806
 21
4.8073
 31
0
  0
LINE
  8
LAYER1
  6
CONTINUOUS
 62
     7
 10
12.8611
 20
4.8628
 30
0
 11
12.6528
 21
4.8628
 31
0
  0
LINE
  8
LAYER1
  6
CONTINUOUS
 62
     7
 10
12.8472
 20
4.8489
 30
0
 11
12.6806
 21
4.8489
 31
0
  0
LINE
  8
LAYER1
  6
CONTINUOUS
 62
     7
 10
12.8611
 20
4.8906
 30
0
 11
12.6528
 21
4.8906
 31
0
  0
LINE
  8
LAYER1
  6
CONTINUOUS
 62
     7
 10
12.8472
 20
4.8767
 30
0
 11
12.6806
 21
4.8767
 31
0
  0
LINE
  8
LAYER1
  6
CONTINUOUS
 62
     7
 10
12.8611
 20
4.9184
 30
0
 11
12.6528
 21
4.9184
 31
0
  0
LINE
  8
LAYER1
  6
CONTINUOUS
 62
     7
 10
12.8472
 20
4.9045
 30
0
 11
12.6806
 21
4.9045
 31
0
  0
LINE
  8
LAYER1
  6
CONTINUOUS
 62
     7
 10
12.8611
 20
4.5573
 30
0
 11
12.8472
 21
4.5434
 31
0
  0
LINE
  8
LAYER1
  6
CONTINUOUS
 62
     7
 10
12.6528
 20
4.5573
 30
0
 11
12.6806
 21
4.5434
 31
0
  0
LINE
  8
LAYER1
  6
CONTINUOUS
 62
     7
 10
12.8611
 20
4.9462
 30
0
 11
12.6528
 21
4.9462
 31
0
  0
LINE
  8
LAYER1
  6
CONTINUOUS
 62
     7
 10
12.8472
 20
4.9323
 30
0
 11
12.6806
 21
4.9323
 31
0
  0
LINE
  8
LAYER1
  6
CONTINUOUS
 62
     7
 10
12.8611
 20
4.9878
 30
0
 11
12.6528
 21
4.9878
 31
0
  0
LINE
  8
LAYER1
  6
CONTINUOUS
 62
     7
 10
12.8472
 20
4.9739
 30
0
 11
12.6806
 21
4.9739
 31
0
  0
LINE
  8
LAYER1
  6
CONTINUOUS
 62
     7
 10
12.8611
 20
5.0156
 30
0
 11
12.6528
 21
5.0156
 31
0
  0
LINE
  8
LAYER1
  6
CONTINUOUS
 62
     7
 10
12.8472
 20
5.0017
 30
0
 11
12.6806
 21
5.0017
 31
0
  0
LINE
  8
LAYER1
  6
CONTINUOUS
 62
     7
 10
12.8611
 20
5.0434
 30
0
 11
12.6528
 21
5.0434
 31
0
  0
LINE
  8
LAYER1
  6
CONTINUOUS
 62
     7
 10
12.8472
 20
5.0295
 30
0
 11
12.6806
 21
5.0295
 31
0
  0
LINE
  8
LAYER1
  6
CONTINUOUS
 62
     7
 10
12.8611
 20
5.0712
 30
0
 11
12.6528
 21
5.0712
 31
0
  0
LINE
  8
LAYER1
  6
CONTINUOUS
 62
     7
 10
12.8472
 20
5.0573
 30
0
 11
12.6806
 21
5.0573
 31
0
  0
LINE
  8
LAYER1
  6
CONTINUOUS
 62
     7
 10
12.8611
 20
5.1128
 30
0
 11
12.6528
 21
5.1128
 31
0
  0
LINE
  8
LAYER1
  6
CONTINUOUS
 62
     7
 10
12.8472
 20
5.0989
 30
0
 11
12.6806
 21
5.0989
 31
0
  0
LINE
  8
LAYER1
  6
CONTINUOUS
 62
     7
 10
12.8611
 20
5.1406
 30
0
 11
12.6528
 21
5.1406
 31
0
  0
LINE
  8
LAYER1
  6
CONTINUOUS
 62
     7
 10
12.8472
 20
5.1267
 30
0
 11
12.6806
 21
5.1267
 31
0
  0
LINE
  8
LAYER1
  6
CONTINUOUS
 62
     7
 10
12.8611
 20
5.1684
 30
0
 11
12.6528
 21
5.1684
 31
0
  0
LINE
  8
LAYER1
  6
CONTINUOUS
 62
     7
 10
12.8472
 20
5.1545
 30
0
 11
12.6806
 21
5.1545
 31
0
  0
LINE
  8
LAYER1
  6
CONTINUOUS
 62
     7
 10
12.8611
 20
5.1962
 30
0
 11
12.6528
 21
5.1962
 31
0
  0
LINE
  8
LAYER1
  6
CONTINUOUS
 62
     7
 10
12.8472
 20
5.1823
 30
0
 11
12.6806
 21
5.1823
 31
0
  0
LINE
  8
LAYER1
  6
CONTINUOUS
 62
     7
 10
12.8611
 20
5.2378
 30
0
 11
12.6528
 21
5.2378
 31
0
  0
LINE
  8
LAYER1
  6
CONTINUOUS
 62
     7
 10
12.8472
 20
5.2239
 30
0
 11
12.6806
 21
5.2239
 31
0
  0
LINE
  8
LAYER1
  6
CONTINUOUS
 62
     7
 10
12.8611
 20
5.2656
 30
0
 11
12.6528
 21
5.2656
 31
0
  0
LINE
  8
LAYER1
  6
CONTINUOUS
 62
     7
 10
12.8472
 20
5.2517
 30
0
 11
12.6806
 21
5.2517
 31
0
  0
LINE
  8
LAYER1
  6
CONTINUOUS
 62
     7
 10
12.8611
 20
5.2934
 30
0
 11
12.6528
 21
5.2934
 31
0
  0
LINE
  8
LAYER1
  6
CONTINUOUS
 62
     7
 10
12.8472
 20
5.2795
 30
0
 11
12.6806
 21
5.2795
 31
0
  0
LINE
  8
LAYER1
  6
CONTINUOUS
 62
     7
 10
12.8611
 20
5.3351
 30
0
 11
12.6528
 21
5.3351
 31
0
  0
LINE
  8
LAYER1
  6
CONTINUOUS
 62
     7
 10
12.8472
 20
5.3073
 30
0
 11
12.6806
 21
5.3073
 31
0
  0
LINE
  8
LAYER1
  6
CONTINUOUS
 62
     7
 10
12.8611
 20
5.3628
 30
0
 11
12.6528
 21
5.3628
 31
0
  0
LINE
  8
LAYER1
  6
CONTINUOUS
 62
     7
 10
12.8472
 20
5.3489
 30
0
 11
12.6806
 21
5.3489
 31
0
  0
LINE
  8
LAYER1
  6
CONTINUOUS
 62
     7
 10
12.8611
 20
5.3906
 30
0
 11
12.6528
 21
5.3906
 31
0
  0
LINE
  8
LAYER1
  6
CONTINUOUS
 62
     7
 10
12.8472
 20
5.3767
 30
0
 11
12.6806
 21
5.3767
 31
0
  0
LINE
  8
LAYER1
  6
CONTINUOUS
 62
     7
 10
12.8611
 20
5.4184
 30
0
 11
12.6528
 21
5.4184
 31
0
  0
LINE
  8
LAYER1
  6
CONTINUOUS
 62
     7
 10
12.8472
 20
5.4045
 30
0
 11
12.6806
 21
5.4045
 31
0
  0
LINE
  8
LAYER1
  6
CONTINUOUS
 62
     7
 10
12.8611
 20
5.4601
 30
0
 11
12.6528
 21
5.4601
 31
0
  0
LINE
  8
LAYER1
  6
CONTINUOUS
 62
     7
 10
12.8472
 20
5.4323
 30
0
 11
12.6806
 21
5.4323
 31
0
  0
LINE
  8
LAYER1
  6
CONTINUOUS
 62
     7
 10
12.8611
 20
5.4878
 30
0
 11
12.6528
 21
5.4878
 31
0
  0
LINE
  8
LAYER1
  6
CONTINUOUS
 62
     7
 10
12.8472
 20
5.4739
 30
0
 11
12.6806
 21
5.4739
 31
0
  0
LINE
  8
LAYER1
  6
CONTINUOUS
 62
     7
 10
12.8611
 20
5.5156
 30
0
 11
12.6528
 21
5.5156
 31
0
  0
LINE
  8
LAYER1
  6
CONTINUOUS
 62
     7
 10
12.8472
 20
5.5017
 30
0
 11
12.6806
 21
5.5017
 31
0
  0
LINE
  8
LAYER1
  6
CONTINUOUS
 62
     7
 10
12.8611
 20
5.5434
 30
0
 11
12.6528
 21
5.5434
 31
0
  0
LINE
  8
LAYER1
  6
CONTINUOUS
 62
     7
 10
12.8472
 20
5.5295
 30
0
 11
12.6806
 21
5.5295
 31
0
  0
LINE
  8
LAYER1
  6
CONTINUOUS
 62
     7
 10
12.8611
 20
5.5851
 30
0
 11
12.6528
 21
5.5851
 31
0
  0
LINE
  8
LAYER1
  6
CONTINUOUS
 62
     7
 10
12.8472
 20
5.5573
 30
0
 11
12.6806
 21
5.5573
 31
0
  0
LINE
  8
LAYER1
  6
CONTINUOUS
 62
     7
 10
12.8611
 20
5.6128
 30
0
 11
12.6528
 21
5.6128
 31
0
  0
LINE
  8
LAYER1
  6
CONTINUOUS
 62
     7
 10
12.8472
 20
5.5989
 30
0
 11
12.6806
 21
5.5989
 31
0
  0
LINE
  8
LAYER1
  6
CONTINUOUS
 62
     7
 10
12.8611
 20
5.6406
 30
0
 11
12.6528
 21
5.6406
 31
0
  0
LINE
  8
LAYER1
  6
CONTINUOUS
 62
     7
 10
12.8472
 20
5.6267
 30
0
 11
12.6806
 21
5.6267
 31
0
  0
LINE
  8
LAYER1
  6
CONTINUOUS
 62
     7
 10
12.8611
 20
5.6684
 30
0
 11
12.6528
 21
5.6684
 31
0
  0
LINE
  8
LAYER1
  6
CONTINUOUS
 62
     7
 10
12.8472
 20
5.6545
 30
0
 11
12.6806
 21
5.6545
 31
0
  0
LINE
  8
LAYER1
  6
CONTINUOUS
 62
     7
 10
12.8611
 20
5.7101
 30
0
 11
12.6528
 21
5.7101
 31
0
  0
LINE
  8
LAYER1
  6
CONTINUOUS
 62
     7
 10
12.8472
 20
5.6823
 30
0
 11
12.6806
 21
5.6823
 31
0
  0
LINE
  8
LAYER1
  6
CONTINUOUS
 62
     7
 10
12.8611
 20
5.7378
 30
0
 11
12.6528
 21
5.7378
 31
0
  0
LINE
  8
LAYER1
  6
CONTINUOUS
 62
     7
 10
12.8472
 20
5.7239
 30
0
 11
12.6806
 21
5.7239
 31
0
  0
LINE
  8
LAYER1
  6
CONTINUOUS
 62
     7
 10
12.8611
 20
5.7656
 30
0
 11
12.6528
 21
5.7656
 31
0
  0
LINE
  8
LAYER1
  6
CONTINUOUS
 62
     7
 10
12.8472
 20
5.7517
 30
0
 11
12.6806
 21
5.7517
 31
0
  0
LINE
  8
LAYER1
  6
CONTINUOUS
 62
     7
 10
12.8611
 20
5.7934
 30
0
 11
12.6528
 21
5.7934
 31
0
  0
LINE
  8
LAYER1
  6
CONTINUOUS
 62
     7
 10
12.8472
 20
5.7795
 30
0
 11
12.6806
 21
5.7795
 31
0
  0
LINE
  8
LAYER1
  6
CONTINUOUS
 62
     7
 10
12.8611
 20
5.8351
 30
0
 11
12.6528
 21
5.8351
 31
0
  0
LINE
  8
LAYER1
  6
CONTINUOUS
 62
     7
 10
12.8472
 20
5.8073
 30
0
 11
12.6806
 21
5.8073
 31
0
  0
LINE
  8
LAYER1
  6
CONTINUOUS
 62
     7
 10
12.8611
 20
5.8628
 30
0
 11
12.6528
 21
5.8628
 31
0
  0
LINE
  8
LAYER1
  6
CONTINUOUS
 62
     7
 10
12.8472
 20
5.8489
 30
0
 11
12.6806
 21
5.8489
 31
0
  0
LINE
  8
LAYER1
  6
CONTINUOUS
 62
     7
 10
12.8611
 20
5.8906
 30
0
 11
12.6528
 21
5.8906
 31
0
  0
LINE
  8
LAYER1
  6
CONTINUOUS
 62
     7
 10
12.8472
 20
5.8767
 30
0
 11
12.6806
 21
5.8767
 31
0
  0
LINE
  8
LAYER1
  6
CONTINUOUS
 62
     7
 10
12.8611
 20
5.9184
 30
0
 11
12.6528
 21
5.9184
 31
0
  0
LINE
  8
LAYER1
  6
CONTINUOUS
 62
     7
 10
12.8472
 20
5.9045
 30
0
 11
12.6806
 21
5.9045
 31
0
  0
LINE
  8
LAYER1
  6
CONTINUOUS
 62
     7
 10
12.8611
 20
5.9601
 30
0
 11
12.6528
 21
5.9601
 31
0
  0
LINE
  8
LAYER1
  6
CONTINUOUS
 62
     7
 10
12.8472
 20
5.9323
 30
0
 11
12.6806
 21
5.9323
 31
0
  0
LINE
  8
LAYER1
  6
CONTINUOUS
 62
     7
 10
12.8611
 20
5.9878
 30
0
 11
12.6528
 21
5.9878
 31
0
  0
LINE
  8
LAYER1
  6
CONTINUOUS
 62
     7
 10
12.8472
 20
5.9739
 30
0
 11
12.6806
 21
5.9739
 31
0
  0
LINE
  8
LAYER1
  6
CONTINUOUS
 62
     7
 10
12.8611
 20
6.0156
 30
0
 11
12.6528
 21
6.0156
 31
0
  0
LINE
  8
LAYER1
  6
CONTINUOUS
 62
     7
 10
12.8472
 20
6.0017
 30
0
 11
12.6806
 21
6.0017
 31
0
  0
LINE
  8
LAYER1
  6
CONTINUOUS
 62
     7
 10
12.8611
 20
6.0434
 30
0
 11
12.6528
 21
6.0434
 31
0
  0
LINE
  8
LAYER1
  6
CONTINUOUS
 62
     7
 10
12.8472
 20
6.0295
 30
0
 11
12.6806
 21
6.0295
 31
0
  0
LINE
  8
LAYER1
  6
CONTINUOUS
 62
     7
 10
12.8611
 20
6.0573
 30
0
 11
12.6528
 21
6.0573
 31
0
  0
LINE
  8
LAYER1
  6
CONTINUOUS
 62
     7
 10
12.8611
 20
6.0573
 30
0
 11
12.8611
 21
4.5573
 31
0
  0
INSERT
  8
LAYER1
  2
Group20
 10
0
 20
0
 30
0
  0
ENDBLK
  8
LAYER1
  0
BLOCK
  8
LAYER1
  2
Group22
 70
     0
 10
0
 20
0
 30
0
  0
LINE
  8
LAYER1
  6
CONTINUOUS
 62
     7
 10
13.2778
 20
6.0573
 30
0
 11
13.2778
 21
4.3073
 31
0
  0
LINE
  8
LAYER1
  6
CONTINUOUS
 62
     7
 10
13.2778
 20
6.0573
 30
0
 11
13.2778
 21
6.0712
 31
0
  0
ENDBLK
  8
LAYER1
  0
BLOCK
  8
LAYER1
  2
Group23
 70
     0
 10
0
 20
0
 30
0
  0
LINE
  8
LAYER1
  6
CONTINUOUS
 62
     7
 10
12.8611
 20
6.0573
 30
0
 11
12.8611
 21
6.0712
 31
0
  0
LINE
  8
LAYER1
  6
CONTINUOUS
 62
     7
 10
13.4861
 20
4.3073
 30
0
 11
13.2778
 21
4.3073
 31
0
  0
LINE
  8
LAYER1
  6
CONTINUOUS
 62
     7
 10
13.4722
 20
4.2934
 30
0
 11
13.2917
 21
4.2934
 31
0
  0
LINE
  8
LAYER1
  6
CONTINUOUS
 62
     7
 10
13.4861
 20
4.3628
 30
0
 11
13.2778
 21
4.3628
 31
0
  0
LINE
  8
LAYER1
  6
CONTINUOUS
 62
     7
 10
13.4722
 20
4.3489
 30
0
 11
13.2917
 21
4.3489
 31
0
  0
LINE
  8
LAYER1
  6
CONTINUOUS
 62
     7
 10
13.4861
 20
4.3906
 30
0
 11
13.2778
 21
4.3906
 31
0
  0
LINE
  8
LAYER1
  6
CONTINUOUS
 62
     7
 10
13.4722
 20
4.3767
 30
0
 11
13.2917
 21
4.3767
 31
0
  0
LINE
  8
LAYER1
  6
CONTINUOUS
 62
     7
 10
13.4861
 20
4.4184
 30
0
 11
13.2778
 21
4.4184
 31
0
  0
LINE
  8
LAYER1
  6
CONTINUOUS
 62
     7
 10
13.4722
 20
4.4045
 30
0
 11
13.2917
 21
4.4045
 31
0
  0
LINE
  8
LAYER1
  6
CONTINUOUS
 62
     7
 10
13.4861
 20
4.4462
 30
0
 11
13.2778
 21
4.4462
 31
0
  0
LINE
  8
LAYER1
  6
CONTINUOUS
 62
     7
 10
13.4722
 20
4.4323
 30
0
 11
13.2917
 21
4.4323
 31
0
  0
LINE
  8
LAYER1
  6
CONTINUOUS
 62
     7
 10
13.4861
 20
4.4878
 30
0
 11
13.2778
 21
4.4878
 31
0
  0
LINE
  8
LAYER1
  6
CONTINUOUS
 62
     7
 10
13.4722
 20
4.4739
 30
0
 11
13.2917
 21
4.4739
 31
0
  0
LINE
  8
LAYER1
  6
CONTINUOUS
 62
     7
 10
13.4861
 20
4.5156
 30
0
 11
13.2778
 21
4.5156
 31
0
  0
LINE
  8
LAYER1
  6
CONTINUOUS
 62
     7
 10
13.4722
 20
4.5017
 30
0
 11
13.2917
 21
4.5017
 31
0
  0
LINE
  8
LAYER1
  6
CONTINUOUS
 62
     7
 10
13.4861
 20
4.5434
 30
0
 11
13.2778
 21
4.5434
 31
0
  0
LINE
  8
LAYER1
  6
CONTINUOUS
 62
     7
 10
13.4722
 20
4.5295
 30
0
 11
13.2917
 21
4.5295
 31
0
  0
LINE
  8
LAYER1
  6
CONTINUOUS
 62
     7
 10
13.4861
 20
4.5712
 30
0
 11
13.2778
 21
4.5712
 31
0
  0
LINE
  8
LAYER1
  6
CONTINUOUS
 62
     7
 10
13.4722
 20
4.5573
 30
0
 11
13.2917
 21
4.5573
 31
0
  0
LINE
  8
LAYER1
  6
CONTINUOUS
 62
     7
 10
13.4861
 20
4.6128
 30
0
 11
13.2778
 21
4.6128
 31
0
  0
LINE
  8
LAYER1
  6
CONTINUOUS
 62
     7
 10
13.4722
 20
4.5989
 30
0
 11
13.2917
 21
4.5989
 31
0
  0
LINE
  8
LAYER1
  6
CONTINUOUS
 62
     7
 10
13.4861
 20
4.6406
 30
0
 11
13.2778
 21
4.6406
 31
0
  0
LINE
  8
LAYER1
  6
CONTINUOUS
 62
     7
 10
13.4722
 20
4.6267
 30
0
 11
13.2917
 21
4.6267
 31
0
  0
LINE
  8
LAYER1
  6
CONTINUOUS
 62
     7
 10
13.4861
 20
4.6684
 30
0
 11
13.2778
 21
4.6684
 31
0
  0
LINE
  8
LAYER1
  6
CONTINUOUS
 62
     7
 10
13.4722
 20
4.6545
 30
0
 11
13.2917
 21
4.6545
 31
0
  0
LINE
  8
LAYER1
  6
CONTINUOUS
 62
     7
 10
13.4861
 20
4.3073
 30
0
 11
13.4722
 21
4.2934
 31
0
  0
LINE
  8
LAYER1
  6
CONTINUOUS
 62
     7
 10
13.2778
 20
4.3073
 30
0
 11
13.2917
 21
4.2934
 31
0
  0
LINE
  8
LAYER1
  6
CONTINUOUS
 62
     7
 10
13.4861
 20
4.6962
 30
0
 11
13.2778
 21
4.6962
 31
0
  0
LINE
  8
LAYER1
  6
CONTINUOUS
 62
     7
 10
13.4722
 20
4.6823
 30
0
 11
13.2917
 21
4.6823
 31
0
  0
LINE
  8
LAYER1
  6
CONTINUOUS
 62
     7
 10
13.4861
 20
4.7378
 30
0
 11
13.2778
 21
4.7378
 31
0
  0
LINE
  8
LAYER1
  6
CONTINUOUS
 62
     7
 10
13.4722
 20
4.7239
 30
0
 11
13.2917
 21
4.7239
 31
0
  0
LINE
  8
LAYER1
  6
CONTINUOUS
 62
     7
 10
13.4861
 20
4.7656
 30
0
 11
13.2778
 21
4.7656
 31
0
  0
LINE
  8
LAYER1
  6
CONTINUOUS
 62
     7
 10
13.4722
 20
4.7517
 30
0
 11
13.2917
 21
4.7517
 31
0
  0
LINE
  8
LAYER1
  6
CONTINUOUS
 62
     7
 10
13.4861
 20
4.7934
 30
0
 11
13.2778
 21
4.7934
 31
0
  0
LINE
  8
LAYER1
  6
CONTINUOUS
 62
     7
 10
13.4722
 20
4.7795
 30
0
 11
13.2917
 21
4.7795
 31
0
  0
LINE
  8
LAYER1
  6
CONTINUOUS
 62
     7
 10
13.4861
 20
4.8212
 30
0
 11
13.2778
 21
4.8212
 31
0
  0
LINE
  8
LAYER1
  6
CONTINUOUS
 62
     7
 10
13.4722
 20
4.8073
 30
0
 11
13.2917
 21
4.8073
 31
0
  0
LINE
  8
LAYER1
  6
CONTINUOUS
 62
     7
 10
13.4861
 20
4.8628
 30
0
 11
13.2778
 21
4.8628
 31
0
  0
LINE
  8
LAYER1
  6
CONTINUOUS
 62
     7
 10
13.4722
 20
4.8489
 30
0
 11
13.2917
 21
4.8489
 31
0
  0
LINE
  8
LAYER1
  6
CONTINUOUS
 62
     7
 10
13.4861
 20
4.8906
 30
0
 11
13.2778
 21
4.8906
 31
0
  0
LINE
  8
LAYER1
  6
CONTINUOUS
 62
     7
 10
13.4722
 20
4.8767
 30
0
 11
13.2917
 21
4.8767
 31
0
  0
LINE
  8
LAYER1
  6
CONTINUOUS
 62
     7
 10
13.4861
 20
4.9184
 30
0
 11
13.2778
 21
4.9184
 31
0
  0
LINE
  8
LAYER1
  6
CONTINUOUS
 62
     7
 10
13.4722
 20
4.9045
 30
0
 11
13.2917
 21
4.9045
 31
0
  0
LINE
  8
LAYER1
  6
CONTINUOUS
 62
     7
 10
13.4861
 20
4.9462
 30
0
 11
13.2778
 21
4.9462
 31
0
  0
LINE
  8
LAYER1
  6
CONTINUOUS
 62
     7
 10
13.4722
 20
4.9323
 30
0
 11
13.2917
 21
4.9323
 31
0
  0
LINE
  8
LAYER1
  6
CONTINUOUS
 62
     7
 10
13.4861
 20
4.9878
 30
0
 11
13.2778
 21
4.9878
 31
0
  0
LINE
  8
LAYER1
  6
CONTINUOUS
 62
     7
 10
13.4722
 20
4.9739
 30
0
 11
13.2917
 21
4.9739
 31
0
  0
LINE
  8
LAYER1
  6
CONTINUOUS
 62
     7
 10
13.4861
 20
5.0156
 30
0
 11
13.2778
 21
5.0156
 31
0
  0
LINE
  8
LAYER1
  6
CONTINUOUS
 62
     7
 10
13.4722
 20
5.0017
 30
0
 11
13.2917
 21
5.0017
 31
0
  0
LINE
  8
LAYER1
  6
CONTINUOUS
 62
     7
 10
13.4861
 20
5.0434
 30
0
 11
13.2778
 21
5.0434
 31
0
  0
LINE
  8
LAYER1
  6
CONTINUOUS
 62
     7
 10
13.4722
 20
5.0295
 30
0
 11
13.2917
 21
5.0295
 31
0
  0
LINE
  8
LAYER1
  6
CONTINUOUS
 62
     7
 10
13.4861
 20
5.0851
 30
0
 11
13.2778
 21
5.0851
 31
0
  0
LINE
  8
LAYER1
  6
CONTINUOUS
 62
     7
 10
13.4722
 20
5.0573
 30
0
 11
13.2917
 21
5.0573
 31
0
  0
LINE
  8
LAYER1
  6
CONTINUOUS
 62
     7
 10
13.4861
 20
5.1128
 30
0
 11
13.2778
 21
5.1128
 31
0
  0
LINE
  8
LAYER1
  6
CONTINUOUS
 62
     7
 10
13.4722
 20
5.0989
 30
0
 11
13.2917
 21
5.0989
 31
0
  0
LINE
  8
LAYER1
  6
CONTINUOUS
 62
     7
 10
13.4861
 20
5.1406
 30
0
 11
13.2778
 21
5.1406
 31
0
  0
LINE
  8
LAYER1
  6
CONTINUOUS
 62
     7
 10
13.4722
 20
5.1267
 30
0
 11
13.2917
 21
5.1267
 31
0
  0
LINE
  8
LAYER1
  6
CONTINUOUS
 62
     7
 10
13.4861
 20
5.1684
 30
0
 11
13.2778
 21
5.1684
 31
0
  0
LINE
  8
LAYER1
  6
CONTINUOUS
 62
     7
 10
13.4722
 20
5.1545
 30
0
 11
13.2917
 21
5.1545
 31
0
  0
LINE
  8
LAYER1
  6
CONTINUOUS
 62
     7
 10
13.4861
 20
5.2101
 30
0
 11
13.2778
 21
5.2101
 31
0
  0
LINE
  8
LAYER1
  6
CONTINUOUS
 62
     7
 10
13.4722
 20
5.1823
 30
0
 11
13.2917
 21
5.1823
 31
0
  0
LINE
  8
LAYER1
  6
CONTINUOUS
 62
     7
 10
13.4861
 20
5.2378
 30
0
 11
13.2778
 21
5.2378
 31
0
  0
LINE
  8
LAYER1
  6
CONTINUOUS
 62
     7
 10
13.4722
 20
5.2239
 30
0
 11
13.2917
 21
5.2239
 31
0
  0
LINE
  8
LAYER1
  6
CONTINUOUS
 62
     7
 10
13.4861
 20
5.2656
 30
0
 11
13.2778
 21
5.2656
 31
0
  0
LINE
  8
LAYER1
  6
CONTINUOUS
 62
     7
 10
13.4722
 20
5.2517
 30
0
 11
13.2917
 21
5.2517
 31
0
  0
LINE
  8
LAYER1
  6
CONTINUOUS
 62
     7
 10
13.4861
 20
5.2934
 30
0
 11
13.2778
 21
5.2934
 31
0
  0
LINE
  8
LAYER1
  6
CONTINUOUS
 62
     7
 10
13.4722
 20
5.2795
 30
0
 11
13.2917
 21
5.2795
 31
0
  0
LINE
  8
LAYER1
  6
CONTINUOUS
 62
     7
 10
13.4861
 20
5.3351
 30
0
 11
13.2778
 21
5.3351
 31
0
  0
LINE
  8
LAYER1
  6
CONTINUOUS
 62
     7
 10
13.4722
 20
5.3073
 30
0
 11
13.2917
 21
5.3073
 31
0
  0
LINE
  8
LAYER1
  6
CONTINUOUS
 62
     7
 10
13.4861
 20
5.3628
 30
0
 11
13.2778
 21
5.3628
 31
0
  0
LINE
  8
LAYER1
  6
CONTINUOUS
 62
     7
 10
13.4722
 20
5.3489
 30
0
 11
13.2917
 21
5.3489
 31
0
  0
LINE
  8
LAYER1
  6
CONTINUOUS
 62
     7
 10
13.4861
 20
5.3906
 30
0
 11
13.2778
 21
5.3906
 31
0
  0
LINE
  8
LAYER1
  6
CONTINUOUS
 62
     7
 10
13.4722
 20
5.3767
 30
0
 11
13.2917
 21
5.3767
 31
0
  0
LINE
  8
LAYER1
  6
CONTINUOUS
 62
     7
 10
13.4861
 20
5.4184
 30
0
 11
13.2778
 21
5.4184
 31
0
  0
LINE
  8
LAYER1
  6
CONTINUOUS
 62
     7
 10
13.4722
 20
5.4045
 30
0
 11
13.2917
 21
5.4045
 31
0
  0
LINE
  8
LAYER1
  6
CONTINUOUS
 62
     7
 10
13.4861
 20
5.4601
 30
0
 11
13.2778
 21
5.4601
 31
0
  0
LINE
  8
LAYER1
  6
CONTINUOUS
 62
     7
 10
13.4722
 20
5.4323
 30
0
 11
13.2917
 21
5.4323
 31
0
  0
LINE
  8
LAYER1
  6
CONTINUOUS
 62
     7
 10
13.4861
 20
5.4878
 30
0
 11
13.2778
 21
5.4878
 31
0
  0
LINE
  8
LAYER1
  6
CONTINUOUS
 62
     7
 10
13.4722
 20
5.4739
 30
0
 11
13.2917
 21
5.4739
 31
0
  0
LINE
  8
LAYER1
  6
CONTINUOUS
 62
     7
 10
13.4861
 20
5.5156
 30
0
 11
13.2778
 21
5.5156
 31
0
  0
LINE
  8
LAYER1
  6
CONTINUOUS
 62
     7
 10
13.4722
 20
5.5017
 30
0
 11
13.2917
 21
5.5017
 31
0
  0
LINE
  8
LAYER1
  6
CONTINUOUS
 62
     7
 10
13.4861
 20
5.5434
 30
0
 11
13.2778
 21
5.5434
 31
0
  0
LINE
  8
LAYER1
  6
CONTINUOUS
 62
     7
 10
13.4722
 20
5.5295
 30
0
 11
13.2917
 21
5.5295
 31
0
  0
LINE
  8
LAYER1
  6
CONTINUOUS
 62
     7
 10
13.4861
 20
5.5851
 30
0
 11
13.2778
 21
5.5851
 31
0
  0
LINE
  8
LAYER1
  6
CONTINUOUS
 62
     7
 10
13.4722
 20
5.5573
 30
0
 11
13.2917
 21
5.5573
 31
0
  0
LINE
  8
LAYER1
  6
CONTINUOUS
 62
     7
 10
13.4861
 20
5.6128
 30
0
 11
13.2778
 21
5.6128
 31
0
  0
LINE
  8
LAYER1
  6
CONTINUOUS
 62
     7
 10
13.4722
 20
5.5989
 30
0
 11
13.2917
 21
5.5989
 31
0
  0
LINE
  8
LAYER1
  6
CONTINUOUS
 62
     7
 10
13.4861
 20
5.6406
 30
0
 11
13.2778
 21
5.6406
 31
0
  0
LINE
  8
LAYER1
  6
CONTINUOUS
 62
     7
 10
13.4722
 20
5.6267
 30
0
 11
13.2917
 21
5.6267
 31
0
  0
LINE
  8
LAYER1
  6
CONTINUOUS
 62
     7
 10
13.4861
 20
5.6684
 30
0
 11
13.2778
 21
5.6684
 31
0
  0
LINE
  8
LAYER1
  6
CONTINUOUS
 62
     7
 10
13.4722
 20
5.6545
 30
0
 11
13.2917
 21
5.6545
 31
0
  0
LINE
  8
LAYER1
  6
CONTINUOUS
 62
     7
 10
13.4861
 20
5.7101
 30
0
 11
13.2778
 21
5.7101
 31
0
  0
LINE
  8
LAYER1
  6
CONTINUOUS
 62
     7
 10
13.4722
 20
5.6823
 30
0
 11
13.2917
 21
5.6823
 31
0
  0
LINE
  8
LAYER1
  6
CONTINUOUS
 62
     7
 10
13.4861
 20
5.7378
 30
0
 11
13.2778
 21
5.7378
 31
0
  0
LINE
  8
LAYER1
  6
CONTINUOUS
 62
     7
 10
13.4722
 20
5.7239
 30
0
 11
13.2917
 21
5.7239
 31
0
  0
LINE
  8
LAYER1
  6
CONTINUOUS
 62
     7
 10
13.4861
 20
5.7656
 30
0
 11
13.2778
 21
5.7656
 31
0
  0
LINE
  8
LAYER1
  6
CONTINUOUS
 62
     7
 10
13.4722
 20
5.7517
 30
0
 11
13.2917
 21
5.7517
 31
0
  0
LINE
  8
LAYER1
  6
CONTINUOUS
 62
     7
 10
13.4861
 20
5.7934
 30
0
 11
13.2778
 21
5.7934
 31
0
  0
LINE
  8
LAYER1
  6
CONTINUOUS
 62
     7
 10
13.4722
 20
5.7795
 30
0
 11
13.2917
 21
5.7795
 31
0
  0
LINE
  8
LAYER1
  6
CONTINUOUS
 62
     7
 10
13.4861
 20
5.8351
 30
0
 11
13.2778
 21
5.8351
 31
0
  0
LINE
  8
LAYER1
  6
CONTINUOUS
 62
     7
 10
13.4722
 20
5.8073
 30
0
 11
13.2917
 21
5.8073
 31
0
  0
LINE
  8
LAYER1
  6
CONTINUOUS
 62
     7
 10
13.4861
 20
5.8628
 30
0
 11
13.2778
 21
5.8628
 31
0
  0
LINE
  8
LAYER1
  6
CONTINUOUS
 62
     7
 10
13.4722
 20
5.8489
 30
0
 11
13.2917
 21
5.8489
 31
0
  0
LINE
  8
LAYER1
  6
CONTINUOUS
 62
     7
 10
13.4861
 20
5.8906
 30
0
 11
13.2778
 21
5.8906
 31
0
  0
LINE
  8
LAYER1
  6
CONTINUOUS
 62
     7
 10
13.4722
 20
5.8767
 30
0
 11
13.2917
 21
5.8767
 31
0
  0
LINE
  8
LAYER1
  6
CONTINUOUS
 62
     7
 10
13.4861
 20
5.9184
 30
0
 11
13.2778
 21
5.9184
 31
0
  0
LINE
  8
LAYER1
  6
CONTINUOUS
 62
     7
 10
13.4722
 20
5.9045
 30
0
 11
13.2917
 21
5.9045
 31
0
  0
LINE
  8
LAYER1
  6
CONTINUOUS
 62
     7
 10
13.4861
 20
5.9601
 30
0
 11
13.2778
 21
5.9601
 31
0
  0
LINE
  8
LAYER1
  6
CONTINUOUS
 62
     7
 10
13.4722
 20
5.9323
 30
0
 11
13.2917
 21
5.9323
 31
0
  0
LINE
  8
LAYER1
  6
CONTINUOUS
 62
     7
 10
13.4861
 20
5.9878
 30
0
 11
13.2778
 21
5.9878
 31
0
  0
LINE
  8
LAYER1
  6
CONTINUOUS
 62
     7
 10
13.4722
 20
5.9739
 30
0
 11
13.2917
 21
5.9739
 31
0
  0
LINE
  8
LAYER1
  6
CONTINUOUS
 62
     7
 10
13.4861
 20
6.0156
 30
0
 11
13.2778
 21
6.0156
 31
0
  0
LINE
  8
LAYER1
  6
CONTINUOUS
 62
     7
 10
13.4722
 20
6.0017
 30
0
 11
13.2917
 21
6.0017
 31
0
  0
LINE
  8
LAYER1
  6
CONTINUOUS
 62
     7
 10
13.4861
 20
6.0434
 30
0
 11
13.2778
 21
6.0434
 31
0
  0
LINE
  8
LAYER1
  6
CONTINUOUS
 62
     7
 10
13.4722
 20
6.0295
 30
0
 11
13.2917
 21
6.0295
 31
0
  0
LINE
  8
LAYER1
  6
CONTINUOUS
 62
     7
 10
13.4861
 20
6.0573
 30
0
 11
13.2778
 21
6.0573
 31
0
  0
LINE
  8
LAYER1
  6
CONTINUOUS
 62
     7
 10
13.4861
 20
6.0573
 30
0
 11
13.4861
 21
4.3073
 31
0
  0
INSERT
  8
LAYER1
  2
Group22
 10
0
 20
0
 30
0
  0
ENDBLK
  8
LAYER1
  0
BLOCK
  8
LAYER1
  2
Group24
 70
     0
 10
0
 20
0
 30
0
  0
LINE
  8
LAYER1
  6
CONTINUOUS
 62
     7
 10
13.9722
 20
6.0573
 30
0
 11
13.9722
 21
4.0573
 31
0
  0
LINE
  8
LAYER1
  6
CONTINUOUS
 62
     7
 10
13.9722
 20
6.0573
 30
0
 11
13.9722
 21
6.0712
 31
0
  0
ENDBLK
  8
LAYER1
  0
BLOCK
  8
LAYER1
  2
Group25
 70
     0
 10
0
 20
0
 30
0
  0
LINE
  8
LAYER1
  6
CONTINUOUS
 62
     7
 10
13.4861
 20
6.0573
 30
0
 11
13.4861
 21
6.0712
 31
0
  0
LINE
  8
LAYER1
  6
CONTINUOUS
 62
     7
 10
14.1806
 20
4.0573
 30
0
 11
13.9722
 21
4.0573
 31
0
  0
LINE
  8
LAYER1
  6
CONTINUOUS
 62
     7
 10
14.1667
 20
4.0434
 30
0
 11
13.9861
 21
4.0434
 31
0
  0
LINE
  8
LAYER1
  6
CONTINUOUS
 62
     7
 10
14.1806
 20
4.1128
 30
0
 11
13.9722
 21
4.1128
 31
0
  0
LINE
  8
LAYER1
  6
CONTINUOUS
 62
     7
 10
14.1667
 20
4.0989
 30
0
 11
13.9861
 21
4.0989
 31
0
  0
LINE
  8
LAYER1
  6
CONTINUOUS
 62
     7
 10
14.1806
 20
4.1406
 30
0
 11
13.9722
 21
4.1406
 31
0
  0
LINE
  8
LAYER1
  6
CONTINUOUS
 62
     7
 10
14.1667
 20
4.1267
 30
0
 11
13.9861
 21
4.1267
 31
0
  0
LINE
  8
LAYER1
  6
CONTINUOUS
 62
     7
 10
14.1806
 20
4.1684
 30
0
 11
13.9722
 21
4.1684
 31
0
  0
LINE
  8
LAYER1
  6
CONTINUOUS
 62
     7
 10
14.1667
 20
4.1545
 30
0
 11
13.9861
 21
4.1545
 31
0
  0
LINE
  8
LAYER1
  6
CONTINUOUS
 62
     7
 10
14.1806
 20
4.1962
 30
0
 11
13.9722
 21
4.1962
 31
0
  0
LINE
  8
LAYER1
  6
CONTINUOUS
 62
     7
 10
14.1667
 20
4.1823
 30
0
 11
13.9861
 21
4.1823
 31
0
  0
LINE
  8
LAYER1
  6
CONTINUOUS
 62
     7
 10
14.1806
 20
4.2378
 30
0
 11
13.9722
 21
4.2378
 31
0
  0
LINE
  8
LAYER1
  6
CONTINUOUS
 62
     7
 10
14.1667
 20
4.2239
 30
0
 11
13.9861
 21
4.2239
 31
0
  0
LINE
  8
LAYER1
  6
CONTINUOUS
 62
     7
 10
14.1806
 20
4.2656
 30
0
 11
13.9722
 21
4.2656
 31
0
  0
LINE
  8
LAYER1
  6
CONTINUOUS
 62
     7
 10
14.1667
 20
4.2517
 30
0
 11
13.9861
 21
4.2517
 31
0
  0
LINE
  8
LAYER1
  6
CONTINUOUS
 62
     7
 10
14.1806
 20
4.2934
 30
0
 11
13.9722
 21
4.2934
 31
0
  0
LINE
  8
LAYER1
  6
CONTINUOUS
 62
     7
 10
14.1667
 20
4.2795
 30
0
 11
13.9861
 21
4.2795
 31
0
  0
LINE
  8
LAYER1
  6
CONTINUOUS
 62
     7
 10
14.1806
 20
4.3212
 30
0
 11
13.9722
 21
4.3212
 31
0
  0
LINE
  8
LAYER1
  6
CONTINUOUS
 62
     7
 10
14.1667
 20
4.3073
 30
0
 11
13.9861
 21
4.3073
 31
0
  0
LINE
  8
LAYER1
  6
CONTINUOUS
 62
     7
 10
14.1806
 20
4.3628
 30
0
 11
13.9722
 21
4.3628
 31
0
  0
LINE
  8
LAYER1
  6
CONTINUOUS
 62
     7
 10
14.1667
 20
4.3489
 30
0
 11
13.9861
 21
4.3489
 31
0
  0
LINE
  8
LAYER1
  6
CONTINUOUS
 62
     7
 10
14.1806
 20
4.3906
 30
0
 11
13.9722
 21
4.3906
 31
0
  0
LINE
  8
LAYER1
  6
CONTINUOUS
 62
     7
 10
14.1667
 20
4.3767
 30
0
 11
13.9861
 21
4.3767
 31
0
  0
LINE
  8
LAYER1
  6
CONTINUOUS
 62
     7
 10
14.1806
 20
4.4184
 30
0
 11
13.9722
 21
4.4184
 31
0
  0
LINE
  8
LAYER1
  6
CONTINUOUS
 62
     7
 10
14.1667
 20
4.4045
 30
0
 11
13.9861
 21
4.4045
 31
0
  0
LINE
  8
LAYER1
  6
CONTINUOUS
 62
     7
 10
14.1806
 20
4.0573
 30
0
 11
14.1667
 21
4.0434
 31
0
  0
LINE
  8
LAYER1
  6
CONTINUOUS
 62
     7
 10
13.9722
 20
4.0573
 30
0
 11
13.9861
 21
4.0434
 31
0
  0
LINE
  8
LAYER1
  6
CONTINUOUS
 62
     7
 10
14.1806
 20
4.4462
 30
0
 11
13.9722
 21
4.4462
 31
0
  0
LINE
  8
LAYER1
  6
CONTINUOUS
 62
     7
 10
14.1667
 20
4.4323
 30
0
 11
13.9861
 21
4.4323
 31
0
  0
LINE
  8
LAYER1
  6
CONTINUOUS
 62
     7
 10
14.1806
 20
4.4878
 30
0
 11
13.9722
 21
4.4878
 31
0
  0
LINE
  8
LAYER1
  6
CONTINUOUS
 62
     7
 10
14.1667
 20
4.4739
 30
0
 11
13.9861
 21
4.4739
 31
0
  0
LINE
  8
LAYER1
  6
CONTINUOUS
 62
     7
 10
14.1806
 20
4.5156
 30
0
 11
13.9722
 21
4.5156
 31
0
  0
LINE
  8
LAYER1
  6
CONTINUOUS
 62
     7
 10
14.1667
 20
4.5017
 30
0
 11
13.9861
 21
4.5017
 31
0
  0
LINE
  8
LAYER1
  6
CONTINUOUS
 62
     7
 10
14.1806
 20
4.5434
 30
0
 11
13.9722
 21
4.5434
 31
0
  0
LINE
  8
LAYER1
  6
CONTINUOUS
 62
     7
 10
14.1667
 20
4.5295
 30
0
 11
13.9861
 21
4.5295
 31
0
  0
LINE
  8
LAYER1
  6
CONTINUOUS
 62
     7
 10
14.1806
 20
4.5712
 30
0
 11
13.9722
 21
4.5712
 31
0
  0
LINE
  8
LAYER1
  6
CONTINUOUS
 62
     7
 10
14.1667
 20
4.5573
 30
0
 11
13.9861
 21
4.5573
 31
0
  0
LINE
  8
LAYER1
  6
CONTINUOUS
 62
     7
 10
14.1806
 20
4.6128
 30
0
 11
13.9722
 21
4.6128
 31
0
  0
LINE
  8
LAYER1
  6
CONTINUOUS
 62
     7
 10
14.1667
 20
4.5989
 30
0
 11
13.9861
 21
4.5989
 31
0
  0
LINE
  8
LAYER1
  6
CONTINUOUS
 62
     7
 10
14.1806
 20
4.6406
 30
0
 11
13.9722
 21
4.6406
 31
0
  0
LINE
  8
LAYER1
  6
CONTINUOUS
 62
     7
 10
14.1667
 20
4.6267
 30
0
 11
13.9861
 21
4.6267
 31
0
  0
LINE
  8
LAYER1
  6
CONTINUOUS
 62
     7
 10
14.1806
 20
4.6684
 30
0
 11
13.9722
 21
4.6684
 31
0
  0
LINE
  8
LAYER1
  6
CONTINUOUS
 62
     7
 10
14.1667
 20
4.6545
 30
0
 11
13.9861
 21
4.6545
 31
0
  0
LINE
  8
LAYER1
  6
CONTINUOUS
 62
     7
 10
14.1806
 20
4.6962
 30
0
 11
13.9722
 21
4.6962
 31
0
  0
LINE
  8
LAYER1
  6
CONTINUOUS
 62
     7
 10
14.1667
 20
4.6823
 30
0
 11
13.9861
 21
4.6823
 31
0
  0
LINE
  8
LAYER1
  6
CONTINUOUS
 62
     7
 10
14.1806
 20
4.7378
 30
0
 11
13.9722
 21
4.7378
 31
0
  0
LINE
  8
LAYER1
  6
CONTINUOUS
 62
     7
 10
14.1667
 20
4.7239
 30
0
 11
13.9861
 21
4.7239
 31
0
  0
LINE
  8
LAYER1
  6
CONTINUOUS
 62
     7
 10
14.1806
 20
4.7656
 30
0
 11
13.9722
 21
4.7656
 31
0
  0
LINE
  8
LAYER1
  6
CONTINUOUS
 62
     7
 10
14.1667
 20
4.7517
 30
0
 11
13.9861
 21
4.7517
 31
0
  0
LINE
  8
LAYER1
  6
CONTINUOUS
 62
     7
 10
14.1806
 20
4.7934
 30
0
 11
13.9722
 21
4.7934
 31
0
  0
LINE
  8
LAYER1
  6
CONTINUOUS
 62
     7
 10
14.1667
 20
4.7795
 30
0
 11
13.9861
 21
4.7795
 31
0
  0
LINE
  8
LAYER1
  6
CONTINUOUS
 62
     7
 10
14.1806
 20
4.8351
 30
0
 11
13.9722
 21
4.8351
 31
0
  0
LINE
  8
LAYER1
  6
CONTINUOUS
 62
     7
 10
14.1667
 20
4.8073
 30
0
 11
13.9861
 21
4.8073
 31
0
  0
LINE
  8
LAYER1
  6
CONTINUOUS
 62
     7
 10
14.1806
 20
4.8628
 30
0
 11
13.9722
 21
4.8628
 31
0
  0
LINE
  8
LAYER1
  6
CONTINUOUS
 62
     7
 10
14.1667
 20
4.8489
 30
0
 11
13.9861
 21
4.8489
 31
0
  0
LINE
  8
LAYER1
  6
CONTINUOUS
 62
     7
 10
14.1806
 20
4.8906
 30
0
 11
13.9722
 21
4.8906
 31
0
  0
LINE
  8
LAYER1
  6
CONTINUOUS
 62
     7
 10
14.1667
 20
4.8767
 30
0
 11
13.9861
 21
4.8767
 31
0
  0
LINE
  8
LAYER1
  6
CONTINUOUS
 62
     7
 10
14.1806
 20
4.9184
 30
0
 11
13.9722
 21
4.9184
 31
0
  0
LINE
  8
LAYER1
  6
CONTINUOUS
 62
     7
 10
14.1667
 20
4.9045
 30
0
 11
13.9861
 21
4.9045
 31
0
  0
LINE
  8
LAYER1
  6
CONTINUOUS
 62
     7
 10
14.1806
 20
4.9601
 30
0
 11
13.9722
 21
4.9601
 31
0
  0
LINE
  8
LAYER1
  6
CONTINUOUS
 62
     7
 10
14.1667
 20
4.9323
 30
0
 11
13.9861
 21
4.9323
 31
0
  0
LINE
  8
LAYER1
  6
CONTINUOUS
 62
     7
 10
14.1806
 20
4.9878
 30
0
 11
13.9722
 21
4.9878
 31
0
  0
LINE
  8
LAYER1
  6
CONTINUOUS
 62
     7
 10
14.1667
 20
4.9739
 30
0
 11
13.9861
 21
4.9739
 31
0
  0
LINE
  8
LAYER1
  6
CONTINUOUS
 62
     7
 10
14.1806
 20
5.0156
 30
0
 11
13.9722
 21
5.0156
 31
0
  0
LINE
  8
LAYER1
  6
CONTINUOUS
 62
     7
 10
14.1667
 20
5.0017
 30
0
 11
13.9861
 21
5.0017
 31
0
  0
LINE
  8
LAYER1
  6
CONTINUOUS
 62
     7
 10
14.1806
 20
5.0434
 30
0
 11
13.9722
 21
5.0434
 31
0
  0
LINE
  8
LAYER1
  6
CONTINUOUS
 62
     7
 10
14.1667
 20
5.0295
 30
0
 11
13.9861
 21
5.0295
 31
0
  0
LINE
  8
LAYER1
  6
CONTINUOUS
 62
     7
 10
14.1806
 20
5.0851
 30
0
 11
13.9722
 21
5.0851
 31
0
  0
LINE
  8
LAYER1
  6
CONTINUOUS
 62
     7
 10
14.1667
 20
5.0573
 30
0
 11
13.9861
 21
5.0573
 31
0
  0
LINE
  8
LAYER1
  6
CONTINUOUS
 62
     7
 10
14.1806
 20
5.1128
 30
0
 11
13.9722
 21
5.1128
 31
0
  0
LINE
  8
LAYER1
  6
CONTINUOUS
 62
     7
 10
14.1667
 20
5.0989
 30
0
 11
13.9861
 21
5.0989
 31
0
  0
LINE
  8
LAYER1
  6
CONTINUOUS
 62
     7
 10
14.1806
 20
5.1406
 30
0
 11
13.9722
 21
5.1406
 31
0
  0
LINE
  8
LAYER1
  6
CONTINUOUS
 62
     7
 10
14.1667
 20
5.1267
 30
0
 11
13.9861
 21
5.1267
 31
0
  0
LINE
  8
LAYER1
  6
CONTINUOUS
 62
     7
 10
14.1806
 20
5.1684
 30
0
 11
13.9722
 21
5.1684
 31
0
  0
LINE
  8
LAYER1
  6
CONTINUOUS
 62
     7
 10
14.1667
 20
5.1545
 30
0
 11
13.9861
 21
5.1545
 31
0
  0
LINE
  8
LAYER1
  6
CONTINUOUS
 62
     7
 10
14.1806
 20
5.2101
 30
0
 11
13.9722
 21
5.2101
 31
0
  0
LINE
  8
LAYER1
  6
CONTINUOUS
 62
     7
 10
14.1667
 20
5.1823
 30
0
 11
13.9861
 21
5.1823
 31
0
  0
LINE
  8
LAYER1
  6
CONTINUOUS
 62
     7
 10
14.1806
 20
5.2378
 30
0
 11
13.9722
 21
5.2378
 31
0
  0
LINE
  8
LAYER1
  6
CONTINUOUS
 62
     7
 10
14.1667
 20
5.2239
 30
0
 11
13.9861
 21
5.2239
 31
0
  0
LINE
  8
LAYER1
  6
CONTINUOUS
 62
     7
 10
14.1806
 20
5.2656
 30
0
 11
13.9722
 21
5.2656
 31
0
  0
LINE
  8
LAYER1
  6
CONTINUOUS
 62
     7
 10
14.1667
 20
5.2517
 30
0
 11
13.9861
 21
5.2517
 31
0
  0
LINE
  8
LAYER1
  6
CONTINUOUS
 62
     7
 10
14.1806
 20
5.2934
 30
0
 11
13.9722
 21
5.2934
 31
0
  0
LINE
  8
LAYER1
  6
CONTINUOUS
 62
     7
 10
14.1667
 20
5.2795
 30
0
 11
13.9861
 21
5.2795
 31
0
  0
LINE
  8
LAYER1
  6
CONTINUOUS
 62
     7
 10
14.1806
 20
5.3351
 30
0
 11
13.9722
 21
5.3351
 31
0
  0
LINE
  8
LAYER1
  6
CONTINUOUS
 62
     7
 10
14.1667
 20
5.3073
 30
0
 11
13.9861
 21
5.3073
 31
0
  0
LINE
  8
LAYER1
  6
CONTINUOUS
 62
     7
 10
14.1806
 20
5.3628
 30
0
 11
13.9722
 21
5.3628
 31
0
  0
LINE
  8
LAYER1
  6
CONTINUOUS
 62
     7
 10
14.1667
 20
5.3489
 30
0
 11
13.9861
 21
5.3489
 31
0
  0
LINE
  8
LAYER1
  6
CONTINUOUS
 62
     7
 10
14.1806
 20
5.3906
 30
0
 11
13.9722
 21
5.3906
 31
0
  0
LINE
  8
LAYER1
  6
CONTINUOUS
 62
     7
 10
14.1667
 20
5.3767
 30
0
 11
13.9861
 21
5.3767
 31
0
  0
LINE
  8
LAYER1
  6
CONTINUOUS
 62
     7
 10
14.1806
 20
5.4184
 30
0
 11
13.9722
 21
5.4184
 31
0
  0
LINE
  8
LAYER1
  6
CONTINUOUS
 62
     7
 10
14.1667
 20
5.4045
 30
0
 11
13.9861
 21
5.4045
 31
0
  0
LINE
  8
LAYER1
  6
CONTINUOUS
 62
     7
 10
14.1806
 20
5.4601
 30
0
 11
13.9722
 21
5.4601
 31
0
  0
LINE
  8
LAYER1
  6
CONTINUOUS
 62
     7
 10
14.1667
 20
5.4323
 30
0
 11
13.9861
 21
5.4323
 31
0
  0
LINE
  8
LAYER1
  6
CONTINUOUS
 62
     7
 10
14.1806
 20
5.4878
 30
0
 11
13.9722
 21
5.4878
 31
0
  0
LINE
  8
LAYER1
  6
CONTINUOUS
 62
     7
 10
14.1667
 20
5.4739
 30
0
 11
13.9861
 21
5.4739
 31
0
  0
LINE
  8
LAYER1
  6
CONTINUOUS
 62
     7
 10
14.1806
 20
5.5156
 30
0
 11
13.9722
 21
5.5156
 31
0
  0
LINE
  8
LAYER1
  6
CONTINUOUS
 62
     7
 10
14.1667
 20
5.5017
 30
0
 11
13.9861
 21
5.5017
 31
0
  0
LINE
  8
LAYER1
  6
CONTINUOUS
 62
     7
 10
14.1806
 20
5.5434
 30
0
 11
13.9722
 21
5.5434
 31
0
  0
LINE
  8
LAYER1
  6
CONTINUOUS
 62
     7
 10
14.1667
 20
5.5295
 30
0
 11
13.9861
 21
5.5295
 31
0
  0
LINE
  8
LAYER1
  6
CONTINUOUS
 62
     7
 10
14.1806
 20
5.5851
 30
0
 11
13.9722
 21
5.5851
 31
0
  0
LINE
  8
LAYER1
  6
CONTINUOUS
 62
     7
 10
14.1667
 20
5.5573
 30
0
 11
13.9861
 21
5.5573
 31
0
  0
LINE
  8
LAYER1
  6
CONTINUOUS
 62
     7
 10
14.1806
 20
5.6128
 30
0
 11
13.9722
 21
5.6128
 31
0
  0
LINE
  8
LAYER1
  6
CONTINUOUS
 62
     7
 10
14.1667
 20
5.5989
 30
0
 11
13.9861
 21
5.5989
 31
0
  0
LINE
  8
LAYER1
  6
CONTINUOUS
 62
     7
 10
14.1806
 20
5.6406
 30
0
 11
13.9722
 21
5.6406
 31
0
  0
LINE
  8
LAYER1
  6
CONTINUOUS
 62
     7
 10
14.1667
 20
5.6267
 30
0
 11
13.9861
 21
5.6267
 31
0
  0
LINE
  8
LAYER1
  6
CONTINUOUS
 62
     7
 10
14.1806
 20
5.6684
 30
0
 11
13.9722
 21
5.6684
 31
0
  0
LINE
  8
LAYER1
  6
CONTINUOUS
 62
     7
 10
14.1667
 20
5.6545
 30
0
 11
13.9861
 21
5.6545
 31
0
  0
LINE
  8
LAYER1
  6
CONTINUOUS
 62
     7
 10
14.1806
 20
5.7101
 30
0
 11
13.9722
 21
5.7101
 31
0
  0
LINE
  8
LAYER1
  6
CONTINUOUS
 62
     7
 10
14.1667
 20
5.6823
 30
0
 11
13.9861
 21
5.6823
 31
0
  0
LINE
  8
LAYER1
  6
CONTINUOUS
 62
     7
 10
14.1806
 20
5.7378
 30
0
 11
13.9722
 21
5.7378
 31
0
  0
LINE
  8
LAYER1
  6
CONTINUOUS
 62
     7
 10
14.1667
 20
5.7239
 30
0
 11
13.9861
 21
5.7239
 31
0
  0
LINE
  8
LAYER1
  6
CONTINUOUS
 62
     7
 10
14.1806
 20
5.7656
 30
0
 11
13.9722
 21
5.7656
 31
0
  0
LINE
  8
LAYER1
  6
CONTINUOUS
 62
     7
 10
14.1667
 20
5.7517
 30
0
 11
13.9861
 21
5.7517
 31
0
  0
LINE
  8
LAYER1
  6
CONTINUOUS
 62
     7
 10
14.1806
 20
5.7934
 30
0
 11
13.9722
 21
5.7934
 31
0
  0
LINE
  8
LAYER1
  6
CONTINUOUS
 62
     7
 10
14.1667
 20
5.7795
 30
0
 11
13.9861
 21
5.7795
 31
0
  0
LINE
  8
LAYER1
  6
CONTINUOUS
 62
     7
 10
14.1806
 20
5.8351
 30
0
 11
13.9722
 21
5.8351
 31
0
  0
LINE
  8
LAYER1
  6
CONTINUOUS
 62
     7
 10
14.1667
 20
5.8073
 30
0
 11
13.9861
 21
5.8073
 31
0
  0
LINE
  8
LAYER1
  6
CONTINUOUS
 62
     7
 10
14.1806
 20
5.8628
 30
0
 11
13.9722
 21
5.8628
 31
0
  0
LINE
  8
LAYER1
  6
CONTINUOUS
 62
     7
 10
14.1667
 20
5.8489
 30
0
 11
13.9861
 21
5.8489
 31
0
  0
LINE
  8
LAYER1
  6
CONTINUOUS
 62
     7
 10
14.1806
 20
5.8906
 30
0
 11
13.9722
 21
5.8906
 31
0
  0
LINE
  8
LAYER1
  6
CONTINUOUS
 62
     7
 10
14.1667
 20
5.8767
 30
0
 11
13.9861
 21
5.8767
 31
0
  0
LINE
  8
LAYER1
  6
CONTINUOUS
 62
     7
 10
14.1806
 20
5.9184
 30
0
 11
13.9722
 21
5.9184
 31
0
  0
LINE
  8
LAYER1
  6
CONTINUOUS
 62
     7
 10
14.1667
 20
5.9045
 30
0
 11
13.9861
 21
5.9045
 31
0
  0
LINE
  8
LAYER1
  6
CONTINUOUS
 62
     7
 10
14.1806
 20
5.9601
 30
0
 11
13.9722
 21
5.9601
 31
0
  0
LINE
  8
LAYER1
  6
CONTINUOUS
 62
     7
 10
14.1667
 20
5.9462
 30
0
 11
13.9861
 21
5.9462
 31
0
  0
LINE
  8
LAYER1
  6
CONTINUOUS
 62
     7
 10
14.1806
 20
5.9878
 30
0
 11
13.9722
 21
5.9878
 31
0
  0
LINE
  8
LAYER1
  6
CONTINUOUS
 62
     7
 10
14.1667
 20
5.9739
 30
0
 11
13.9861
 21
5.9739
 31
0
  0
LINE
  8
LAYER1
  6
CONTINUOUS
 62
     7
 10
14.1806
 20
6.0156
 30
0
 11
13.9722
 21
6.0156
 31
0
  0
LINE
  8
LAYER1
  6
CONTINUOUS
 62
     7
 10
14.1667
 20
6.0017
 30
0
 11
13.9861
 21
6.0017
 31
0
  0
LINE
  8
LAYER1
  6
CONTINUOUS
 62
     7
 10
14.1806
 20
6.0434
 30
0
 11
13.9722
 21
6.0434
 31
0
  0
LINE
  8
LAYER1
  6
CONTINUOUS
 62
     7
 10
14.1667
 20
6.0295
 30
0
 11
13.9861
 21
6.0295
 31
0
  0
LINE
  8
LAYER1
  6
CONTINUOUS
 62
     7
 10
14.1806
 20
6.0573
 30
0
 11
13.9722
 21
6.0573
 31
0
  0
LINE
  8
LAYER1
  6
CONTINUOUS
 62
     7
 10
14.1806
 20
4.0573
 30
0
 11
14.1806
 21
6.0573
 31
0
  0
INSERT
  8
LAYER1
  2
Group24
 10
0
 20
0
 30
0
  0
ENDBLK
  8
LAYER1
  0
BLOCK
  8
LAYER1
  2
Group26
 70
     0
 10
0
 20
0
 30
0
  0
LINE
  8
LAYER1
  6
CONTINUOUS
 62
     7
 10
9.8611
 20
3.3073
 30
0
 11
9.875
 21
3.2934
 31
0
  0
LINE
  8
LAYER1
  6
CONTINUOUS
 62
     7
 10
9.8611
 20
3.6823
 30
0
 11
9.8472
 21
3.7101
 31
0
  0
ENDBLK
  8
LAYER1
  0
BLOCK
  8
LAYER1
  2
Group27
 70
     0
 10
0
 20
0
 30
0
  0
LINE
  8
LAYER1
  6
CONTINUOUS
 62
     7
 10
9.5972
 20
3.7101
 30
0
 11
14.3472
 21
3.7101
 31
0
  0
LINE
  8
LAYER1
  6
CONTINUOUS
 62
     7
 10
10.1111
 20
3.3073
 30
0
 11
9.8611
 21
3.3073
 31
0
  0
LINE
  8
LAYER1
  6
CONTINUOUS
 62
     7
 10
10.0833
 20
3.2934
 30
0
 11
9.875
 21
3.2934
 31
0
  0
LINE
  8
LAYER1
  6
CONTINUOUS
 62
     7
 10
10.1111
 20
3.3628
 30
0
 11
9.8611
 21
3.3628
 31
0
  0
LINE
  8
LAYER1
  6
CONTINUOUS
 62
     7
 10
10.0833
 20
3.3351
 30
0
 11
9.875
 21
3.3351
 31
0
  0
LINE
  8
LAYER1
  6
CONTINUOUS
 62
     7
 10
10.1111
 20
3.3906
 30
0
 11
9.8611
 21
3.3906
 31
0
  0
LINE
  8
LAYER1
  6
CONTINUOUS
 62
     7
 10
10.0833
 20
3.3767
 30
0
 11
9.875
 21
3.3767
 31
0
  0
LINE
  8
LAYER1
  6
CONTINUOUS
 62
     7
 10
10.1111
 20
3.4184
 30
0
 11
9.8611
 21
3.4184
 31
0
  0
LINE
  8
LAYER1
  6
CONTINUOUS
 62
     7
 10
10.0833
 20
3.4045
 30
0
 11
9.875
 21
3.4045
 31
0
  0
LINE
  8
LAYER1
  6
CONTINUOUS
 62
     7
 10
10.1111
 20
3.4462
 30
0
 11
9.8611
 21
3.4462
 31
0
  0
LINE
  8
LAYER1
  6
CONTINUOUS
 62
     7
 10
10.0833
 20
3.4323
 30
0
 11
9.875
 21
3.4323
 31
0
  0
LINE
  8
LAYER1
  6
CONTINUOUS
 62
     7
 10
10.1111
 20
3.4878
 30
0
 11
9.8611
 21
3.4878
 31
0
  0
LINE
  8
LAYER1
  6
CONTINUOUS
 62
     7
 10
10.0833
 20
3.4739
 30
0
 11
9.875
 21
3.4739
 31
0
  0
LINE
  8
LAYER1
  6
CONTINUOUS
 62
     7
 10
10.1111
 20
3.5156
 30
0
 11
9.8611
 21
3.5156
 31
0
  0
LINE
  8
LAYER1
  6
CONTINUOUS
 62
     7
 10
10.0833
 20
3.5017
 30
0
 11
9.875
 21
3.5017
 31
0
  0
LINE
  8
LAYER1
  6
CONTINUOUS
 62
     7
 10
10.1111
 20
3.5434
 30
0
 11
9.8611
 21
3.5434
 31
0
  0
LINE
  8
LAYER1
  6
CONTINUOUS
 62
     7
 10
10.0833
 20
3.5295
 30
0
 11
9.875
 21
3.5295
 31
0
  0
LINE
  8
LAYER1
  6
CONTINUOUS
 62
     7
 10
10.1111
 20
3.5712
 30
0
 11
9.8611
 21
3.5712
 31
0
  0
LINE
  8
LAYER1
  6
CONTINUOUS
 62
     7
 10
10.0833
 20
3.5573
 30
0
 11
9.875
 21
3.5573
 31
0
  0
LINE
  8
LAYER1
  6
CONTINUOUS
 62
     7
 10
10.1111
 20
3.6128
 30
0
 11
9.8611
 21
3.6128
 31
0
  0
LINE
  8
LAYER1
  6
CONTINUOUS
 62
     7
 10
10.0833
 20
3.5989
 30
0
 11
9.875
 21
3.5989
 31
0
  0
LINE
  8
LAYER1
  6
CONTINUOUS
 62
     7
 10
10.1111
 20
3.6406
 30
0
 11
9.8611
 21
3.6406
 31
0
  0
LINE
  8
LAYER1
  6
CONTINUOUS
 62
     7
 10
10.0833
 20
3.6267
 30
0
 11
9.875
 21
3.6267
 31
0
  0
LINE
  8
LAYER1
  6
CONTINUOUS
 62
     7
 10
10.1111
 20
3.6684
 30
0
 11
9.8611
 21
3.6684
 31
0
  0
LINE
  8
LAYER1
  6
CONTINUOUS
 62
     7
 10
10.0833
 20
3.6545
 30
0
 11
9.875
 21
3.6545
 31
0
  0
LINE
  8
LAYER1
  6
CONTINUOUS
 62
     7
 10
10.1111
 20
3.6823
 30
0
 11
9.8611
 21
3.6823
 31
0
  0
LINE
  8
LAYER1
  6
CONTINUOUS
 62
     7
 10
10.1111
 20
3.6823
 30
0
 11
10.1111
 21
3.3073
 31
0
  0
LINE
  8
LAYER1
  6
CONTINUOUS
 62
     7
 10
9.8611
 20
3.6823
 30
0
 11
9.8611
 21
3.3073
 31
0
  0
LINE
  8
LAYER1
  6
CONTINUOUS
 62
     7
 10
10.1111
 20
3.3073
 30
0
 11
10.0833
 21
3.2934
 31
0
  0
INSERT
  8
LAYER1
  2
Group26
 10
0
 20
0
 30
0
  0
ENDBLK
  8
LAYER1
  0
BLOCK
  8
LAYER1
  2
Group28
 70
     0
 10
0
 20
0
 30
0
  0
POLYLINE
  8
LAYER1
  6
CONTINUOUS
 62
     7
 66
     1
 70
     0
 40
0.001
 41
0.001
  0
VERTEX
  8
LAYER1
 10
10.4028
 20
3.1823
 30
0
 70
     0
  0
VERTEX
  8
LAYER1
 10
10.4028
 20
3.6823
 30
0
 70
     0
  0
VERTEX
  8
LAYER1
 10
10.3889
 20
3.7101
 30
0
 70
     0
  0
SEQEND
  0
ENDBLK
  8
LAYER1
  0
BLOCK
  8
LAYER1
  2
Group29
 70
     0
 10
0
 20
0
 30
0
  0
LINE
  8
LAYER1
  6
CONTINUOUS
 62
     7
 10
10.1111
 20
3.6823
 30
0
 11
10.1111
 21
3.7101
 31
0
  0
LINE
  8
LAYER1
  6
CONTINUOUS
 62
     7
 10
10.6528
 20
3.1823
 30
0
 11
10.4028
 21
3.1823
 31
0
  0
LINE
  8
LAYER1
  6
CONTINUOUS
 62
     7
 10
10.625
 20
3.1684
 30
0
 11
10.4167
 21
3.1684
 31
0
  0
LINE
  8
LAYER1
  6
CONTINUOUS
 62
     7
 10
10.6528
 20
3.2378
 30
0
 11
10.4028
 21
3.2378
 31
0
  0
LINE
  8
LAYER1
  6
CONTINUOUS
 62
     7
 10
10.625
 20
3.2101
 30
0
 11
10.4167
 21
3.2101
 31
0
  0
LINE
  8
LAYER1
  6
CONTINUOUS
 62
     7
 10
10.6528
 20
3.2656
 30
0
 11
10.4028
 21
3.2656
 31
0
  0
LINE
  8
LAYER1
  6
CONTINUOUS
 62
     7
 10
10.625
 20
3.2517
 30
0
 11
10.4167
 21
3.2517
 31
0
  0
LINE
  8
LAYER1
  6
CONTINUOUS
 62
     7
 10
10.6528
 20
3.2934
 30
0
 11
10.4028
 21
3.2934
 31
0
  0
LINE
  8
LAYER1
  6
CONTINUOUS
 62
     7
 10
10.625
 20
3.2795
 30
0
 11
10.4167
 21
3.2795
 31
0
  0
LINE
  8
LAYER1
  6
CONTINUOUS
 62
     7
 10
10.6528
 20
3.3212
 30
0
 11
10.4028
 21
3.3212
 31
0
  0
LINE
  8
LAYER1
  6
CONTINUOUS
 62
     7
 10
10.625
 20
3.3073
 30
0
 11
10.4167
 21
3.3073
 31
0
  0
LINE
  8
LAYER1
  6
CONTINUOUS
 62
     7
 10
10.6528
 20
3.3628
 30
0
 11
10.4028
 21
3.3628
 31
0
  0
LINE
  8
LAYER1
  6
CONTINUOUS
 62
     7
 10
10.625
 20
3.3489
 30
0
 11
10.4167
 21
3.3489
 31
0
  0
LINE
  8
LAYER1
  6
CONTINUOUS
 62
     7
 10
10.6528
 20
3.3906
 30
0
 11
10.4028
 21
3.3906
 31
0
  0
LINE
  8
LAYER1
  6
CONTINUOUS
 62
     7
 10
10.625
 20
3.3767
 30
0
 11
10.4167
 21
3.3767
 31
0
  0
LINE
  8
LAYER1
  6
CONTINUOUS
 62
     7
 10
10.6528
 20
3.4184
 30
0
 11
10.4028
 21
3.4184
 31
0
  0
LINE
  8
LAYER1
  6
CONTINUOUS
 62
     7
 10
10.625
 20
3.4045
 30
0
 11
10.4167
 21
3.4045
 31
0
  0
LINE
  8
LAYER1
  6
CONTINUOUS
 62
     7
 10
10.6528
 20
3.4462
 30
0
 11
10.4028
 21
3.4462
 31
0
  0
LINE
  8
LAYER1
  6
CONTINUOUS
 62
     7
 10
10.625
 20
3.4323
 30
0
 11
10.4167
 21
3.4323
 31
0
  0
LINE
  8
LAYER1
  6
CONTINUOUS
 62
     7
 10
10.6528
 20
3.4878
 30
0
 11
10.4028
 21
3.4878
 31
0
  0
LINE
  8
LAYER1
  6
CONTINUOUS
 62
     7
 10
10.625
 20
3.4739
 30
0
 11
10.4167
 21
3.4739
 31
0
  0
LINE
  8
LAYER1
  6
CONTINUOUS
 62
     7
 10
10.6528
 20
3.5156
 30
0
 11
10.4028
 21
3.5156
 31
0
  0
LINE
  8
LAYER1
  6
CONTINUOUS
 62
     7
 10
10.625
 20
3.5017
 30
0
 11
10.4167
 21
3.5017
 31
0
  0
LINE
  8
LAYER1
  6
CONTINUOUS
 62
     7
 10
10.6528
 20
3.5434
 30
0
 11
10.4028
 21
3.5434
 31
0
  0
LINE
  8
LAYER1
  6
CONTINUOUS
 62
     7
 10
10.625
 20
3.5295
 30
0
 11
10.4167
 21
3.5295
 31
0
  0
LINE
  8
LAYER1
  6
CONTINUOUS
 62
     7
 10
10.6528
 20
3.1823
 30
0
 11
10.625
 21
3.1684
 31
0
  0
LINE
  8
LAYER1
  6
CONTINUOUS
 62
     7
 10
10.4028
 20
3.1823
 30
0
 11
10.4167
 21
3.1684
 31
0
  0
LINE
  8
LAYER1
  6
CONTINUOUS
 62
     7
 10
10.6528
 20
3.5712
 30
0
 11
10.4028
 21
3.5712
 31
0
  0
LINE
  8
LAYER1
  6
CONTINUOUS
 62
     7
 10
10.625
 20
3.5573
 30
0
 11
10.4167
 21
3.5573
 31
0
  0
LINE
  8
LAYER1
  6
CONTINUOUS
 62
     7
 10
10.6528
 20
3.6128
 30
0
 11
10.4028
 21
3.6128
 31
0
  0
LINE
  8
LAYER1
  6
CONTINUOUS
 62
     7
 10
10.625
 20
3.5989
 30
0
 11
10.4167
 21
3.5989
 31
0
  0
LINE
  8
LAYER1
  6
CONTINUOUS
 62
     7
 10
10.6528
 20
3.6406
 30
0
 11
10.4028
 21
3.6406
 31
0
  0
LINE
  8
LAYER1
  6
CONTINUOUS
 62
     7
 10
10.625
 20
3.6267
 30
0
 11
10.4167
 21
3.6267
 31
0
  0
LINE
  8
LAYER1
  6
CONTINUOUS
 62
     7
 10
10.6528
 20
3.6684
 30
0
 11
10.4028
 21
3.6684
 31
0
  0
LINE
  8
LAYER1
  6
CONTINUOUS
 62
     7
 10
10.625
 20
3.6545
 30
0
 11
10.4167
 21
3.6545
 31
0
  0
LINE
  8
LAYER1
  6
CONTINUOUS
 62
     7
 10
10.6528
 20
3.6823
 30
0
 11
10.4028
 21
3.6823
 31
0
  0
LINE
  8
LAYER1
  6
CONTINUOUS
 62
     7
 10
10.6528
 20
3.6823
 30
0
 11
10.6528
 21
3.1823
 31
0
  0
INSERT
  8
LAYER1
  2
Group28
 10
0
 20
0
 30
0
  0
ENDBLK
  8
LAYER1
  0
BLOCK
  8
LAYER1
  2
Group30
 70
     0
 10
0
 20
0
 30
0
  0
POLYLINE
  8
LAYER1
  6
CONTINUOUS
 62
     7
 66
     1
 70
     0
 40
0.001
 41
0.001
  0
VERTEX
  8
LAYER1
 10
10.9167
 20
2.9323
 30
0
 70
     0
  0
VERTEX
  8
LAYER1
 10
10.9167
 20
3.6823
 30
0
 70
     0
  0
VERTEX
  8
LAYER1
 10
10.9028
 20
3.7101
 30
0
 70
     0
  0
SEQEND
  0
ENDBLK
  8
LAYER1
  0
BLOCK
  8
LAYER1
  2
Group31
 70
     0
 10
0
 20
0
 30
0
  0
LINE
  8
LAYER1
  6
CONTINUOUS
 62
     7
 10
10.6528
 20
3.6823
 30
0
 11
10.6528
 21
3.7101
 31
0
  0
LINE
  8
LAYER1
  6
CONTINUOUS
 62
     7
 10
11.1667
 20
2.9323
 30
0
 11
10.9167
 21
2.9323
 31
0
  0
LINE
  8
LAYER1
  6
CONTINUOUS
 62
     7
 10
11.1528
 20
2.9184
 30
0
 11
10.9306
 21
2.9184
 31
0
  0
LINE
  8
LAYER1
  6
CONTINUOUS
 62
     7
 10
11.1667
 20
2.9878
 30
0
 11
10.9167
 21
2.9878
 31
0
  0
LINE
  8
LAYER1
  6
CONTINUOUS
 62
     7
 10
11.1528
 20
2.9601
 30
0
 11
10.9306
 21
2.9601
 31
0
  0
LINE
  8
LAYER1
  6
CONTINUOUS
 62
     7
 10
11.1667
 20
3.0156
 30
0
 11
10.9167
 21
3.0156
 31
0
  0
LINE
  8
LAYER1
  6
CONTINUOUS
 62
     7
 10
11.1528
 20
3.0017
 30
0
 11
10.9306
 21
3.0017
 31
0
  0
LINE
  8
LAYER1
  6
CONTINUOUS
 62
     7
 10
11.1667
 20
3.0434
 30
0
 11
10.9167
 21
3.0434
 31
0
  0
LINE
  8
LAYER1
  6
CONTINUOUS
 62
     7
 10
11.1528
 20
3.0295
 30
0
 11
10.9306
 21
3.0295
 31
0
  0
LINE
  8
LAYER1
  6
CONTINUOUS
 62
     7
 10
11.1667
 20
3.0712
 30
0
 11
10.9167
 21
3.0712
 31
0
  0
LINE
  8
LAYER1
  6
CONTINUOUS
 62
     7
 10
11.1528
 20
3.0573
 30
0
 11
10.9306
 21
3.0573
 31
0
  0
LINE
  8
LAYER1
  6
CONTINUOUS
 62
     7
 10
11.1667
 20
3.1128
 30
0
 11
10.9167
 21
3.1128
 31
0
  0
LINE
  8
LAYER1
  6
CONTINUOUS
 62
     7
 10
11.1528
 20
3.0989
 30
0
 11
10.9306
 21
3.0989
 31
0
  0
LINE
  8
LAYER1
  6
CONTINUOUS
 62
     7
 10
11.1667
 20
3.1406
 30
0
 11
10.9167
 21
3.1406
 31
0
  0
LINE
  8
LAYER1
  6
CONTINUOUS
 62
     7
 10
11.1528
 20
3.1267
 30
0
 11
10.9306
 21
3.1267
 31
0
  0
LINE
  8
LAYER1
  6
CONTINUOUS
 62
     7
 10
11.1667
 20
3.1684
 30
0
 11
10.9167
 21
3.1684
 31
0
  0
LINE
  8
LAYER1
  6
CONTINUOUS
 62
     7
 10
11.1528
 20
3.1545
 30
0
 11
10.9306
 21
3.1545
 31
0
  0
LINE
  8
LAYER1
  6
CONTINUOUS
 62
     7
 10
11.1667
 20
3.1962
 30
0
 11
10.9167
 21
3.1962
 31
0
  0
LINE
  8
LAYER1
  6
CONTINUOUS
 62
     7
 10
11.1528
 20
3.1823
 30
0
 11
10.9306
 21
3.1823
 31
0
  0
LINE
  8
LAYER1
  6
CONTINUOUS
 62
     7
 10
11.1667
 20
3.2378
 30
0
 11
10.9167
 21
3.2378
 31
0
  0
LINE
  8
LAYER1
  6
CONTINUOUS
 62
     7
 10
11.1528
 20
3.2239
 30
0
 11
10.9306
 21
3.2239
 31
0
  0
LINE
  8
LAYER1
  6
CONTINUOUS
 62
     7
 10
11.1667
 20
3.2656
 30
0
 11
10.9167
 21
3.2656
 31
0
  0
LINE
  8
LAYER1
  6
CONTINUOUS
 62
     7
 10
11.1528
 20
3.2517
 30
0
 11
10.9306
 21
3.2517
 31
0
  0
LINE
  8
LAYER1
  6
CONTINUOUS
 62
     7
 10
11.1667
 20
3.2934
 30
0
 11
10.9167
 21
3.2934
 31
0
  0
LINE
  8
LAYER1
  6
CONTINUOUS
 62
     7
 10
11.1528
 20
3.2795
 30
0
 11
10.9306
 21
3.2795
 31
0
  0
LINE
  8
LAYER1
  6
CONTINUOUS
 62
     7
 10
11.1667
 20
2.9323
 30
0
 11
11.1528
 21
2.9184
 31
0
  0
LINE
  8
LAYER1
  6
CONTINUOUS
 62
     7
 10
10.9167
 20
2.9323
 30
0
 11
10.9306
 21
2.9184
 31
0
  0
LINE
  8
LAYER1
  6
CONTINUOUS
 62
     7
 10
11.1667
 20
3.3212
 30
0
 11
10.9167
 21
3.3212
 31
0
  0
LINE
  8
LAYER1
  6
CONTINUOUS
 62
     7
 10
11.1528
 20
3.3073
 30
0
 11
10.9306
 21
3.3073
 31
0
  0
LINE
  8
LAYER1
  6
CONTINUOUS
 62
     7
 10
11.1667
 20
3.3628
 30
0
 11
10.9167
 21
3.3628
 31
0
  0
LINE
  8
LAYER1
  6
CONTINUOUS
 62
     7
 10
11.1528
 20
3.3489
 30
0
 11
10.9306
 21
3.3489
 31
0
  0
LINE
  8
LAYER1
  6
CONTINUOUS
 62
     7
 10
11.1667
 20
3.3906
 30
0
 11
10.9167
 21
3.3906
 31
0
  0
LINE
  8
LAYER1
  6
CONTINUOUS
 62
     7
 10
11.1528
 20
3.3767
 30
0
 11
10.9306
 21
3.3767
 31
0
  0
LINE
  8
LAYER1
  6
CONTINUOUS
 62
     7
 10
11.1667
 20
3.4184
 30
0
 11
10.9167
 21
3.4184
 31
0
  0
LINE
  8
LAYER1
  6
CONTINUOUS
 62
     7
 10
11.1528
 20
3.4045
 30
0
 11
10.9306
 21
3.4045
 31
0
  0
LINE
  8
LAYER1
  6
CONTINUOUS
 62
     7
 10
11.1667
 20
3.4462
 30
0
 11
10.9167
 21
3.4462
 31
0
  0
LINE
  8
LAYER1
  6
CONTINUOUS
 62
     7
 10
11.1528
 20
3.4323
 30
0
 11
10.9306
 21
3.4323
 31
0
  0
LINE
  8
LAYER1
  6
CONTINUOUS
 62
     7
 10
11.1667
 20
3.4878
 30
0
 11
10.9167
 21
3.4878
 31
0
  0
LINE
  8
LAYER1
  6
CONTINUOUS
 62
     7
 10
11.1528
 20
3.4739
 30
0
 11
10.9306
 21
3.4739
 31
0
  0
LINE
  8
LAYER1
  6
CONTINUOUS
 62
     7
 10
11.1667
 20
3.5156
 30
0
 11
10.9167
 21
3.5156
 31
0
  0
LINE
  8
LAYER1
  6
CONTINUOUS
 62
     7
 10
11.1528
 20
3.5017
 30
0
 11
10.9306
 21
3.5017
 31
0
  0
LINE
  8
LAYER1
  6
CONTINUOUS
 62
     7
 10
11.1667
 20
3.5434
 30
0
 11
10.9167
 21
3.5434
 31
0
  0
LINE
  8
LAYER1
  6
CONTINUOUS
 62
     7
 10
11.1528
 20
3.5295
 30
0
 11
10.9306
 21
3.5295
 31
0
  0
LINE
  8
LAYER1
  6
CONTINUOUS
 62
     7
 10
11.1667
 20
3.5712
 30
0
 11
10.9167
 21
3.5712
 31
0
  0
LINE
  8
LAYER1
  6
CONTINUOUS
 62
     7
 10
11.1528
 20
3.5573
 30
0
 11
10.9306
 21
3.5573
 31
0
  0
LINE
  8
LAYER1
  6
CONTINUOUS
 62
     7
 10
11.1667
 20
3.6128
 30
0
 11
10.9167
 21
3.6128
 31
0
  0
LINE
  8
LAYER1
  6
CONTINUOUS
 62
     7
 10
11.1528
 20
3.5989
 30
0
 11
10.9306
 21
3.5989
 31
0
  0
LINE
  8
LAYER1
  6
CONTINUOUS
 62
     7
 10
11.1667
 20
3.6406
 30
0
 11
10.9167
 21
3.6406
 31
0
  0
LINE
  8
LAYER1
  6
CONTINUOUS
 62
     7
 10
11.1528
 20
3.6267
 30
0
 11
10.9306
 21
3.6267
 31
0
  0
LINE
  8
LAYER1
  6
CONTINUOUS
 62
     7
 10
11.1667
 20
3.6684
 30
0
 11
10.9167
 21
3.6684
 31
0
  0
LINE
  8
LAYER1
  6
CONTINUOUS
 62
     7
 10
11.1528
 20
3.6545
 30
0
 11
10.9306
 21
3.6545
 31
0
  0
LINE
  8
LAYER1
  6
CONTINUOUS
 62
     7
 10
11.1667
 20
3.6823
 30
0
 11
10.9167
 21
3.6823
 31
0
  0
LINE
  8
LAYER1
  6
CONTINUOUS
 62
     7
 10
11.1667
 20
3.6823
 30
0
 11
11.1667
 21
2.9323
 31
0
  0
INSERT
  8
LAYER1
  2
Group30
 10
0
 20
0
 30
0
  0
ENDBLK
  8
LAYER1
  0
BLOCK
  8
LAYER1
  2
Group32
 70
     0
 10
0
 20
0
 30
0
  0
POLYLINE
  8
LAYER1
  6
CONTINUOUS
 62
     7
 66
     1
 70
     0
 40
0.001
 41
0.001
  0
VERTEX
  8
LAYER1
 10
12.6389
 20
2.1823
 30
0
 70
     0
  0
VERTEX
  8
LAYER1
 10
12.6389
 20
3.6823
 30
0
 70
     0
  0
VERTEX
  8
LAYER1
 10
12.625
 20
3.7101
 30
0
 70
     0
  0
SEQEND
  0
ENDBLK
  8
LAYER1
  0
BLOCK
  8
LAYER1
  2
Group33
 70
     0
 10
0
 20
0
 30
0
  0
LINE
  8
LAYER1
  6
CONTINUOUS
 62
     7
 10
11.1667
 20
3.6823
 30
0
 11
11.1806
 21
3.7101
 31
0
  0
LINE
  8
LAYER1
  6
CONTINUOUS
 62
     7
 10
12.8889
 20
2.1823
 30
0
 11
12.6389
 21
2.1823
 31
0
  0
LINE
  8
LAYER1
  6
CONTINUOUS
 62
     7
 10
12.875
 20
2.1684
 30
0
 11
12.6528
 21
2.1684
 31
0
  0
LINE
  8
LAYER1
  6
CONTINUOUS
 62
     7
 10
12.8889
 20
2.2378
 30
0
 11
12.6389
 21
2.2378
 31
0
  0
LINE
  8
LAYER1
  6
CONTINUOUS
 62
     7
 10
12.875
 20
2.2101
 30
0
 11
12.6528
 21
2.2101
 31
0
  0
LINE
  8
LAYER1
  6
CONTINUOUS
 62
     7
 10
12.8889
 20
2.2656
 30
0
 11
12.6389
 21
2.2656
 31
0
  0
LINE
  8
LAYER1
  6
CONTINUOUS
 62
     7
 10
12.875
 20
2.2517
 30
0
 11
12.6528
 21
2.2517
 31
0
  0
LINE
  8
LAYER1
  6
CONTINUOUS
 62
     7
 10
12.8889
 20
2.2934
 30
0
 11
12.6389
 21
2.2934
 31
0
  0
LINE
  8
LAYER1
  6
CONTINUOUS
 62
     7
 10
12.875
 20
2.2795
 30
0
 11
12.6528
 21
2.2795
 31
0
  0
LINE
  8
LAYER1
  6
CONTINUOUS
 62
     7
 10
12.8889
 20
2.3212
 30
0
 11
12.6389
 21
2.3212
 31
0
  0
LINE
  8
LAYER1
  6
CONTINUOUS
 62
     7
 10
12.875
 20
2.3073
 30
0
 11
12.6528
 21
2.3073
 31
0
  0
LINE
  8
LAYER1
  6
CONTINUOUS
 62
     7
 10
12.8889
 20
2.3628
 30
0
 11
12.6389
 21
2.3628
 31
0
  0
LINE
  8
LAYER1
  6
CONTINUOUS
 62
     7
 10
12.875
 20
2.3489
 30
0
 11
12.6528
 21
2.3489
 31
0
  0
LINE
  8
LAYER1
  6
CONTINUOUS
 62
     7
 10
12.8889
 20
2.3906
 30
0
 11
12.6389
 21
2.3906
 31
0
  0
LINE
  8
LAYER1
  6
CONTINUOUS
 62
     7
 10
12.875
 20
2.3767
 30
0
 11
12.6528
 21
2.3767
 31
0
  0
LINE
  8
LAYER1
  6
CONTINUOUS
 62
     7
 10
12.8889
 20
2.4184
 30
0
 11
12.6389
 21
2.4184
 31
0
  0
LINE
  8
LAYER1
  6
CONTINUOUS
 62
     7
 10
12.875
 20
2.4045
 30
0
 11
12.6528
 21
2.4045
 31
0
  0
LINE
  8
LAYER1
  6
CONTINUOUS
 62
     7
 10
12.8889
 20
2.4462
 30
0
 11
12.6389
 21
2.4462
 31
0
  0
LINE
  8
LAYER1
  6
CONTINUOUS
 62
     7
 10
12.875
 20
2.4323
 30
0
 11
12.6528
 21
2.4323
 31
0
  0
LINE
  8
LAYER1
  6
CONTINUOUS
 62
     7
 10
12.8889
 20
2.4878
 30
0
 11
12.6389
 21
2.4878
 31
0
  0
LINE
  8
LAYER1
  6
CONTINUOUS
 62
     7
 10
12.875
 20
2.4739
 30
0
 11
12.6528
 21
2.4739
 31
0
  0
LINE
  8
LAYER1
  6
CONTINUOUS
 62
     7
 10
12.8889
 20
2.5156
 30
0
 11
12.6389
 21
2.5156
 31
0
  0
LINE
  8
LAYER1
  6
CONTINUOUS
 62
     7
 10
12.875
 20
2.5017
 30
0
 11
12.6528
 21
2.5017
 31
0
  0
LINE
  8
LAYER1
  6
CONTINUOUS
 62
     7
 10
12.8889
 20
2.5434
 30
0
 11
12.6389
 21
2.5434
 31
0
  0
LINE
  8
LAYER1
  6
CONTINUOUS
 62
     7
 10
12.875
 20
2.5295
 30
0
 11
12.6528
 21
2.5295
 31
0
  0
LINE
  8
LAYER1
  6
CONTINUOUS
 62
     7
 10
12.8889
 20
2.1823
 30
0
 11
12.875
 21
2.1684
 31
0
  0
LINE
  8
LAYER1
  6
CONTINUOUS
 62
     7
 10
12.6389
 20
2.1823
 30
0
 11
12.6528
 21
2.1684
 31
0
  0
LINE
  8
LAYER1
  6
CONTINUOUS
 62
     7
 10
12.8889
 20
2.5712
 30
0
 11
12.6389
 21
2.5712
 31
0
  0
LINE
  8
LAYER1
  6
CONTINUOUS
 62
     7
 10
12.875
 20
2.5573
 30
0
 11
12.6528
 21
2.5573
 31
0
  0
LINE
  8
LAYER1
  6
CONTINUOUS
 62
     7
 10
12.8889
 20
2.6128
 30
0
 11
12.6389
 21
2.6128
 31
0
  0
LINE
  8
LAYER1
  6
CONTINUOUS
 62
     7
 10
12.875
 20
2.5989
 30
0
 11
12.6528
 21
2.5989
 31
0
  0
LINE
  8
LAYER1
  6
CONTINUOUS
 62
     7
 10
12.8889
 20
2.6406
 30
0
 11
12.6389
 21
2.6406
 31
0
  0
LINE
  8
LAYER1
  6
CONTINUOUS
 62
     7
 10
12.875
 20
2.6267
 30
0
 11
12.6528
 21
2.6267
 31
0
  0
LINE
  8
LAYER1
  6
CONTINUOUS
 62
     7
 10
12.8889
 20
2.6684
 30
0
 11
12.6389
 21
2.6684
 31
0
  0
LINE
  8
LAYER1
  6
CONTINUOUS
 62
     7
 10
12.875
 20
2.6545
 30
0
 11
12.6528
 21
2.6545
 31
0
  0
LINE
  8
LAYER1
  6
CONTINUOUS
 62
     7
 10
12.8889
 20
2.6962
 30
0
 11
12.6389
 21
2.6962
 31
0
  0
LINE
  8
LAYER1
  6
CONTINUOUS
 62
     7
 10
12.875
 20
2.6823
 30
0
 11
12.6528
 21
2.6823
 31
0
  0
LINE
  8
LAYER1
  6
CONTINUOUS
 62
     7
 10
12.8889
 20
2.7378
 30
0
 11
12.6389
 21
2.7378
 31
0
  0
LINE
  8
LAYER1
  6
CONTINUOUS
 62
     7
 10
12.875
 20
2.7239
 30
0
 11
12.6528
 21
2.7239
 31
0
  0
LINE
  8
LAYER1
  6
CONTINUOUS
 62
     7
 10
12.8889
 20
2.7656
 30
0
 11
12.6389
 21
2.7656
 31
0
  0
LINE
  8
LAYER1
  6
CONTINUOUS
 62
     7
 10
12.875
 20
2.7517
 30
0
 11
12.6528
 21
2.7517
 31
0
  0
LINE
  8
LAYER1
  6
CONTINUOUS
 62
     7
 10
12.8889
 20
2.7934
 30
0
 11
12.6389
 21
2.7934
 31
0
  0
LINE
  8
LAYER1
  6
CONTINUOUS
 62
     7
 10
12.875
 20
2.7795
 30
0
 11
12.6528
 21
2.7795
 31
0
  0
LINE
  8
LAYER1
  6
CONTINUOUS
 62
     7
 10
12.8889
 20
2.8212
 30
0
 11
12.6389
 21
2.8212
 31
0
  0
LINE
  8
LAYER1
  6
CONTINUOUS
 62
     7
 10
12.875
 20
2.8073
 30
0
 11
12.6528
 21
2.8073
 31
0
  0
LINE
  8
LAYER1
  6
CONTINUOUS
 62
     7
 10
12.8889
 20
2.8628
 30
0
 11
12.6389
 21
2.8628
 31
0
  0
LINE
  8
LAYER1
  6
CONTINUOUS
 62
     7
 10
12.875
 20
2.8489
 30
0
 11
12.6528
 21
2.8489
 31
0
  0
LINE
  8
LAYER1
  6
CONTINUOUS
 62
     7
 10
12.8889
 20
2.8906
 30
0
 11
12.6389
 21
2.8906
 31
0
  0
LINE
  8
LAYER1
  6
CONTINUOUS
 62
     7
 10
12.875
 20
2.8767
 30
0
 11
12.6528
 21
2.8767
 31
0
  0
LINE
  8
LAYER1
  6
CONTINUOUS
 62
     7
 10
12.8889
 20
2.9184
 30
0
 11
12.6389
 21
2.9184
 31
0
  0
LINE
  8
LAYER1
  6
CONTINUOUS
 62
     7
 10
12.875
 20
2.9045
 30
0
 11
12.6528
 21
2.9045
 31
0
  0
LINE
  8
LAYER1
  6
CONTINUOUS
 62
     7
 10
12.8889
 20
2.9462
 30
0
 11
12.6389
 21
2.9462
 31
0
  0
LINE
  8
LAYER1
  6
CONTINUOUS
 62
     7
 10
12.875
 20
2.9323
 30
0
 11
12.6528
 21
2.9323
 31
0
  0
LINE
  8
LAYER1
  6
CONTINUOUS
 62
     7
 10
12.8889
 20
2.9878
 30
0
 11
12.6389
 21
2.9878
 31
0
  0
LINE
  8
LAYER1
  6
CONTINUOUS
 62
     7
 10
12.875
 20
2.9739
 30
0
 11
12.6528
 21
2.9739
 31
0
  0
LINE
  8
LAYER1
  6
CONTINUOUS
 62
     7
 10
12.8889
 20
3.0156
 30
0
 11
12.6389
 21
3.0156
 31
0
  0
LINE
  8
LAYER1
  6
CONTINUOUS
 62
     7
 10
12.875
 20
3.0017
 30
0
 11
12.6528
 21
3.0017
 31
0
  0
LINE
  8
LAYER1
  6
CONTINUOUS
 62
     7
 10
12.8889
 20
3.0434
 30
0
 11
12.6389
 21
3.0434
 31
0
  0
LINE
  8
LAYER1
  6
CONTINUOUS
 62
     7
 10
12.875
 20
3.0295
 30
0
 11
12.6528
 21
3.0295
 31
0
  0
LINE
  8
LAYER1
  6
CONTINUOUS
 62
     7
 10
12.8889
 20
3.0712
 30
0
 11
12.6389
 21
3.0712
 31
0
  0
LINE
  8
LAYER1
  6
CONTINUOUS
 62
     7
 10
12.875
 20
3.0573
 30
0
 11
12.6528
 21
3.0573
 31
0
  0
LINE
  8
LAYER1
  6
CONTINUOUS
 62
     7
 10
12.8889
 20
3.1128
 30
0
 11
12.6389
 21
3.1128
 31
0
  0
LINE
  8
LAYER1
  6
CONTINUOUS
 62
     7
 10
12.875
 20
3.0989
 30
0
 11
12.6528
 21
3.0989
 31
0
  0
LINE
  8
LAYER1
  6
CONTINUOUS
 62
     7
 10
12.8889
 20
3.1406
 30
0
 11
12.6389
 21
3.1406
 31
0
  0
LINE
  8
LAYER1
  6
CONTINUOUS
 62
     7
 10
12.875
 20
3.1267
 30
0
 11
12.6528
 21
3.1267
 31
0
  0
LINE
  8
LAYER1
  6
CONTINUOUS
 62
     7
 10
12.8889
 20
3.1684
 30
0
 11
12.6389
 21
3.1684
 31
0
  0
LINE
  8
LAYER1
  6
CONTINUOUS
 62
     7
 10
12.875
 20
3.1545
 30
0
 11
12.6528
 21
3.1545
 31
0
  0
LINE
  8
LAYER1
  6
CONTINUOUS
 62
     7
 10
12.8889
 20
3.1962
 30
0
 11
12.6389
 21
3.1962
 31
0
  0
LINE
  8
LAYER1
  6
CONTINUOUS
 62
     7
 10
12.875
 20
3.1823
 30
0
 11
12.6528
 21
3.1823
 31
0
  0
LINE
  8
LAYER1
  6
CONTINUOUS
 62
     7
 10
12.8889
 20
3.2378
 30
0
 11
12.6389
 21
3.2378
 31
0
  0
LINE
  8
LAYER1
  6
CONTINUOUS
 62
     7
 10
12.875
 20
3.2239
 30
0
 11
12.6528
 21
3.2239
 31
0
  0
LINE
  8
LAYER1
  6
CONTINUOUS
 62
     7
 10
12.8889
 20
3.2656
 30
0
 11
12.6389
 21
3.2656
 31
0
  0
LINE
  8
LAYER1
  6
CONTINUOUS
 62
     7
 10
12.875
 20
3.2517
 30
0
 11
12.6528
 21
3.2517
 31
0
  0
LINE
  8
LAYER1
  6
CONTINUOUS
 62
     7
 10
12.8889
 20
3.2934
 30
0
 11
12.6389
 21
3.2934
 31
0
  0
LINE
  8
LAYER1
  6
CONTINUOUS
 62
     7
 10
12.875
 20
3.2795
 30
0
 11
12.6528
 21
3.2795
 31
0
  0
LINE
  8
LAYER1
  6
CONTINUOUS
 62
     7
 10
12.8889
 20
3.3212
 30
0
 11
12.6389
 21
3.3212
 31
0
  0
LINE
  8
LAYER1
  6
CONTINUOUS
 62
     7
 10
12.875
 20
3.3073
 30
0
 11
12.6528
 21
3.3073
 31
0
  0
LINE
  8
LAYER1
  6
CONTINUOUS
 62
     7
 10
12.8889
 20
3.3628
 30
0
 11
12.6389
 21
3.3628
 31
0
  0
LINE
  8
LAYER1
  6
CONTINUOUS
 62
     7
 10
12.875
 20
3.3489
 30
0
 11
12.6528
 21
3.3489
 31
0
  0
LINE
  8
LAYER1
  6
CONTINUOUS
 62
     7
 10
12.8889
 20
3.3906
 30
0
 11
12.6389
 21
3.3906
 31
0
  0
LINE
  8
LAYER1
  6
CONTINUOUS
 62
     7
 10
12.875
 20
3.3767
 30
0
 11
12.6528
 21
3.3767
 31
0
  0
LINE
  8
LAYER1
  6
CONTINUOUS
 62
     7
 10
12.8889
 20
3.4184
 30
0
 11
12.6389
 21
3.4184
 31
0
  0
LINE
  8
LAYER1
  6
CONTINUOUS
 62
     7
 10
12.875
 20
3.4045
 30
0
 11
12.6528
 21
3.4045
 31
0
  0
LINE
  8
LAYER1
  6
CONTINUOUS
 62
     7
 10
12.8889
 20
3.4601
 30
0
 11
12.6389
 21
3.4601
 31
0
  0
LINE
  8
LAYER1
  6
CONTINUOUS
 62
     7
 10
12.875
 20
3.4323
 30
0
 11
12.6528
 21
3.4323
 31
0
  0
LINE
  8
LAYER1
  6
CONTINUOUS
 62
     7
 10
12.8889
 20
3.4878
 30
0
 11
12.6389
 21
3.4878
 31
0
  0
LINE
  8
LAYER1
  6
CONTINUOUS
 62
     7
 10
12.875
 20
3.4739
 30
0
 11
12.6528
 21
3.4739
 31
0
  0
LINE
  8
LAYER1
  6
CONTINUOUS
 62
     7
 10
12.8889
 20
3.5156
 30
0
 11
12.6389
 21
3.5156
 31
0
  0
LINE
  8
LAYER1
  6
CONTINUOUS
 62
     7
 10
12.875
 20
3.5017
 30
0
 11
12.6528
 21
3.5017
 31
0
  0
LINE
  8
LAYER1
  6
CONTINUOUS
 62
     7
 10
12.8889
 20
3.5434
 30
0
 11
12.6389
 21
3.5434
 31
0
  0
LINE
  8
LAYER1
  6
CONTINUOUS
 62
     7
 10
12.875
 20
3.5295
 30
0
 11
12.6528
 21
3.5295
 31
0
  0
LINE
  8
LAYER1
  6
CONTINUOUS
 62
     7
 10
12.8889
 20
3.5851
 30
0
 11
12.6389
 21
3.5851
 31
0
  0
LINE
  8
LAYER1
  6
CONTINUOUS
 62
     7
 10
12.875
 20
3.5573
 30
0
 11
12.6528
 21
3.5573
 31
0
  0
LINE
  8
LAYER1
  6
CONTINUOUS
 62
     7
 10
12.8889
 20
3.6128
 30
0
 11
12.6389
 21
3.6128
 31
0
  0
LINE
  8
LAYER1
  6
CONTINUOUS
 62
     7
 10
12.875
 20
3.5989
 30
0
 11
12.6528
 21
3.5989
 31
0
  0
LINE
  8
LAYER1
  6
CONTINUOUS
 62
     7
 10
12.8889
 20
3.6406
 30
0
 11
12.6389
 21
3.6406
 31
0
  0
LINE
  8
LAYER1
  6
CONTINUOUS
 62
     7
 10
12.875
 20
3.6267
 30
0
 11
12.6528
 21
3.6267
 31
0
  0
LINE
  8
LAYER1
  6
CONTINUOUS
 62
     7
 10
12.8889
 20
3.6684
 30
0
 11
12.6389
 21
3.6684
 31
0
  0
LINE
  8
LAYER1
  6
CONTINUOUS
 62
     7
 10
12.875
 20
3.6545
 30
0
 11
12.6528
 21
3.6545
 31
0
  0
LINE
  8
LAYER1
  6
CONTINUOUS
 62
     7
 10
12.8889
 20
3.6823
 30
0
 11
12.6389
 21
3.6823
 31
0
  0
LINE
  8
LAYER1
  6
CONTINUOUS
 62
     7
 10
12.8889
 20
3.6823
 30
0
 11
12.8889
 21
2.1823
 31
0
  0
INSERT
  8
LAYER1
  2
Group32
 10
0
 20
0
 30
0
  0
ENDBLK
  8
LAYER1
  0
BLOCK
  8
LAYER1
  2
Group34
 70
     0
 10
0
 20
0
 30
0
  0
POLYLINE
  8
LAYER1
  6
CONTINUOUS
 62
     7
 66
     1
 70
     0
 40
0.001
 41
0.001
  0
VERTEX
  8
LAYER1
 10
12.0694
 20
2.4323
 30
0
 70
     0
  0
VERTEX
  8
LAYER1
 10
12.0694
 20
3.6823
 30
0
 70
     0
  0
VERTEX
  8
LAYER1
 10
12.0694
 20
3.7101
 30
0
 70
     0
  0
SEQEND
  0
ENDBLK
  8
LAYER1
  0
BLOCK
  8
LAYER1
  2
Group35
 70
     0
 10
0
 20
0
 30
0
  0
LINE
  8
LAYER1
  6
CONTINUOUS
 62
     7
 10
12.8889
 20
3.6823
 30
0
 11
12.9028
 21
3.7101
 31
0
  0
LINE
  8
LAYER1
  6
CONTINUOUS
 62
     7
 10
12.3194
 20
2.4323
 30
0
 11
12.0694
 21
2.4323
 31
0
  0
LINE
  8
LAYER1
  6
CONTINUOUS
 62
     7
 10
12.3056
 20
2.4184
 30
0
 11
12.0972
 21
2.4184
 31
0
  0
LINE
  8
LAYER1
  6
CONTINUOUS
 62
     7
 10
12.3194
 20
2.4878
 30
0
 11
12.0694
 21
2.4878
 31
0
  0
LINE
  8
LAYER1
  6
CONTINUOUS
 62
     7
 10
12.3056
 20
2.4601
 30
0
 11
12.0972
 21
2.4601
 31
0
  0
LINE
  8
LAYER1
  6
CONTINUOUS
 62
     7
 10
12.3194
 20
2.5156
 30
0
 11
12.0694
 21
2.5156
 31
0
  0
LINE
  8
LAYER1
  6
CONTINUOUS
 62
     7
 10
12.3056
 20
2.5017
 30
0
 11
12.0972
 21
2.5017
 31
0
  0
LINE
  8
LAYER1
  6
CONTINUOUS
 62
     7
 10
12.3194
 20
2.5434
 30
0
 11
12.0694
 21
2.5434
 31
0
  0
LINE
  8
LAYER1
  6
CONTINUOUS
 62
     7
 10
12.3056
 20
2.5295
 30
0
 11
12.0972
 21
2.5295
 31
0
  0
LINE
  8
LAYER1
  6
CONTINUOUS
 62
     7
 10
12.3194
 20
2.5712
 30
0
 11
12.0694
 21
2.5712
 31
0
  0
LINE
  8
LAYER1
  6
CONTINUOUS
 62
     7
 10
12.3056
 20
2.5573
 30
0
 11
12.0972
 21
2.5573
 31
0
  0
LINE
  8
LAYER1
  6
CONTINUOUS
 62
     7
 10
12.3194
 20
2.6128
 30
0
 11
12.0694
 21
2.6128
 31
0
  0
LINE
  8
LAYER1
  6
CONTINUOUS
 62
     7
 10
12.3056
 20
2.5989
 30
0
 11
12.0972
 21
2.5989
 31
0
  0
LINE
  8
LAYER1
  6
CONTINUOUS
 62
     7
 10
12.3194
 20
2.6406
 30
0
 11
12.0694
 21
2.6406
 31
0
  0
LINE
  8
LAYER1
  6
CONTINUOUS
 62
     7
 10
12.3056
 20
2.6267
 30
0
 11
12.0972
 21
2.6267
 31
0
  0
LINE
  8
LAYER1
  6
CONTINUOUS
 62
     7
 10
12.3194
 20
2.6684
 30
0
 11
12.0694
 21
2.6684
 31
0
  0
LINE
  8
LAYER1
  6
CONTINUOUS
 62
     7
 10
12.3056
 20
2.6545
 30
0
 11
12.0972
 21
2.6545
 31
0
  0
LINE
  8
LAYER1
  6
CONTINUOUS
 62
     7
 10
12.3194
 20
2.6962
 30
0
 11
12.0694
 21
2.6962
 31
0
  0
LINE
  8
LAYER1
  6
CONTINUOUS
 62
     7
 10
12.3056
 20
2.6823
 30
0
 11
12.0972
 21
2.6823
 31
0
  0
LINE
  8
LAYER1
  6
CONTINUOUS
 62
     7
 10
12.3194
 20
2.7378
 30
0
 11
12.0694
 21
2.7378
 31
0
  0
LINE
  8
LAYER1
  6
CONTINUOUS
 62
     7
 10
12.3056
 20
2.7239
 30
0
 11
12.0972
 21
2.7239
 31
0
  0
LINE
  8
LAYER1
  6
CONTINUOUS
 62
     7
 10
12.3194
 20
2.7656
 30
0
 11
12.0694
 21
2.7656
 31
0
  0
LINE
  8
LAYER1
  6
CONTINUOUS
 62
     7
 10
12.3056
 20
2.7517
 30
0
 11
12.0972
 21
2.7517
 31
0
  0
LINE
  8
LAYER1
  6
CONTINUOUS
 62
     7
 10
12.3194
 20
2.7934
 30
0
 11
12.0694
 21
2.7934
 31
0
  0
LINE
  8
LAYER1
  6
CONTINUOUS
 62
     7
 10
12.3056
 20
2.7795
 30
0
 11
12.0972
 21
2.7795
 31
0
  0
LINE
  8
LAYER1
  6
CONTINUOUS
 62
     7
 10
12.3194
 20
2.4323
 30
0
 11
12.3056
 21
2.4184
 31
0
  0
LINE
  8
LAYER1
  6
CONTINUOUS
 62
     7
 10
12.0694
 20
2.4323
 30
0
 11
12.0972
 21
2.4184
 31
0
  0
LINE
  8
LAYER1
  6
CONTINUOUS
 62
     7
 10
12.3194
 20
2.8212
 30
0
 11
12.0694
 21
2.8212
 31
0
  0
LINE
  8
LAYER1
  6
CONTINUOUS
 62
     7
 10
12.3056
 20
2.8073
 30
0
 11
12.0972
 21
2.8073
 31
0
  0
LINE
  8
LAYER1
  6
CONTINUOUS
 62
     7
 10
12.3194
 20
2.8628
 30
0
 11
12.0694
 21
2.8628
 31
0
  0
LINE
  8
LAYER1
  6
CONTINUOUS
 62
     7
 10
12.3056
 20
2.8489
 30
0
 11
12.0972
 21
2.8489
 31
0
  0
LINE
  8
LAYER1
  6
CONTINUOUS
 62
     7
 10
12.3194
 20
2.8906
 30
0
 11
12.0694
 21
2.8906
 31
0
  0
LINE
  8
LAYER1
  6
CONTINUOUS
 62
     7
 10
12.3056
 20
2.8767
 30
0
 11
12.0972
 21
2.8767
 31
0
  0
LINE
  8
LAYER1
  6
CONTINUOUS
 62
     7
 10
12.3194
 20
2.9184
 30
0
 11
12.0694
 21
2.9184
 31
0
  0
LINE
  8
LAYER1
  6
CONTINUOUS
 62
     7
 10
12.3056
 20
2.9045
 30
0
 11
12.0972
 21
2.9045
 31
0
  0
LINE
  8
LAYER1
  6
CONTINUOUS
 62
     7
 10
12.3194
 20
2.9462
 30
0
 11
12.0694
 21
2.9462
 31
0
  0
LINE
  8
LAYER1
  6
CONTINUOUS
 62
     7
 10
12.3056
 20
2.9323
 30
0
 11
12.0972
 21
2.9323
 31
0
  0
LINE
  8
LAYER1
  6
CONTINUOUS
 62
     7
 10
12.3194
 20
2.9878
 30
0
 11
12.0694
 21
2.9878
 31
0
  0
LINE
  8
LAYER1
  6
CONTINUOUS
 62
     7
 10
12.3056
 20
2.9739
 30
0
 11
12.0972
 21
2.9739
 31
0
  0
LINE
  8
LAYER1
  6
CONTINUOUS
 62
     7
 10
12.3194
 20
3.0156
 30
0
 11
12.0694
 21
3.0156
 31
0
  0
LINE
  8
LAYER1
  6
CONTINUOUS
 62
     7
 10
12.3056
 20
3.0017
 30
0
 11
12.0972
 21
3.0017
 31
0
  0
LINE
  8
LAYER1
  6
CONTINUOUS
 62
     7
 10
12.3194
 20
3.0434
 30
0
 11
12.0694
 21
3.0434
 31
0
  0
LINE
  8
LAYER1
  6
CONTINUOUS
 62
     7
 10
12.3056
 20
3.0295
 30
0
 11
12.0972
 21
3.0295
 31
0
  0
LINE
  8
LAYER1
  6
CONTINUOUS
 62
     7
 10
12.3194
 20
3.0712
 30
0
 11
12.0694
 21
3.0712
 31
0
  0
LINE
  8
LAYER1
  6
CONTINUOUS
 62
     7
 10
12.3056
 20
3.0573
 30
0
 11
12.0972
 21
3.0573
 31
0
  0
LINE
  8
LAYER1
  6
CONTINUOUS
 62
     7
 10
12.3194
 20
3.1128
 30
0
 11
12.0694
 21
3.1128
 31
0
  0
LINE
  8
LAYER1
  6
CONTINUOUS
 62
     7
 10
12.3056
 20
3.0989
 30
0
 11
12.0972
 21
3.0989
 31
0
  0
LINE
  8
LAYER1
  6
CONTINUOUS
 62
     7
 10
12.3194
 20
3.1406
 30
0
 11
12.0694
 21
3.1406
 31
0
  0
LINE
  8
LAYER1
  6
CONTINUOUS
 62
     7
 10
12.3056
 20
3.1267
 30
0
 11
12.0972
 21
3.1267
 31
0
  0
LINE
  8
LAYER1
  6
CONTINUOUS
 62
     7
 10
12.3194
 20
3.1684
 30
0
 11
12.0694
 21
3.1684
 31
0
  0
LINE
  8
LAYER1
  6
CONTINUOUS
 62
     7
 10
12.3056
 20
3.1545
 30
0
 11
12.0972
 21
3.1545
 31
0
  0
LINE
  8
LAYER1
  6
CONTINUOUS
 62
     7
 10
12.3194
 20
3.1962
 30
0
 11
12.0694
 21
3.1962
 31
0
  0
LINE
  8
LAYER1
  6
CONTINUOUS
 62
     7
 10
12.3056
 20
3.1823
 30
0
 11
12.0972
 21
3.1823
 31
0
  0
LINE
  8
LAYER1
  6
CONTINUOUS
 62
     7
 10
12.3194
 20
3.2378
 30
0
 11
12.0694
 21
3.2378
 31
0
  0
LINE
  8
LAYER1
  6
CONTINUOUS
 62
     7
 10
12.3056
 20
3.2239
 30
0
 11
12.0972
 21
3.2239
 31
0
  0
LINE
  8
LAYER1
  6
CONTINUOUS
 62
     7
 10
12.3194
 20
3.2656
 30
0
 11
12.0694
 21
3.2656
 31
0
  0
LINE
  8
LAYER1
  6
CONTINUOUS
 62
     7
 10
12.3056
 20
3.2517
 30
0
 11
12.0972
 21
3.2517
 31
0
  0
LINE
  8
LAYER1
  6
CONTINUOUS
 62
     7
 10
12.3194
 20
3.2934
 30
0
 11
12.0694
 21
3.2934
 31
0
  0
LINE
  8
LAYER1
  6
CONTINUOUS
 62
     7
 10
12.3056
 20
3.2795
 30
0
 11
12.0972
 21
3.2795
 31
0
  0
LINE
  8
LAYER1
  6
CONTINUOUS
 62
     7
 10
12.3194
 20
3.3212
 30
0
 11
12.0694
 21
3.3212
 31
0
  0
LINE
  8
LAYER1
  6
CONTINUOUS
 62
     7
 10
12.3056
 20
3.3073
 30
0
 11
12.0972
 21
3.3073
 31
0
  0
LINE
  8
LAYER1
  6
CONTINUOUS
 62
     7
 10
12.3194
 20
3.3628
 30
0
 11
12.0694
 21
3.3628
 31
0
  0
LINE
  8
LAYER1
  6
CONTINUOUS
 62
     7
 10
12.3056
 20
3.3489
 30
0
 11
12.0972
 21
3.3489
 31
0
  0
LINE
  8
LAYER1
  6
CONTINUOUS
 62
     7
 10
12.3194
 20
3.3906
 30
0
 11
12.0694
 21
3.3906
 31
0
  0
LINE
  8
LAYER1
  6
CONTINUOUS
 62
     7
 10
12.3056
 20
3.3767
 30
0
 11
12.0972
 21
3.3767
 31
0
  0
LINE
  8
LAYER1
  6
CONTINUOUS
 62
     7
 10
12.3194
 20
3.4184
 30
0
 11
12.0694
 21
3.4184
 31
0
  0
LINE
  8
LAYER1
  6
CONTINUOUS
 62
     7
 10
12.3056
 20
3.4045
 30
0
 11
12.0972
 21
3.4045
 31
0
  0
LINE
  8
LAYER1
  6
CONTINUOUS
 62
     7
 10
12.3194
 20
3.4462
 30
0
 11
12.0694
 21
3.4462
 31
0
  0
LINE
  8
LAYER1
  6
CONTINUOUS
 62
     7
 10
12.3056
 20
3.4323
 30
0
 11
12.0972
 21
3.4323
 31
0
  0
LINE
  8
LAYER1
  6
CONTINUOUS
 62
     7
 10
12.3194
 20
3.4878
 30
0
 11
12.0694
 21
3.4878
 31
0
  0
LINE
  8
LAYER1
  6
CONTINUOUS
 62
     7
 10
12.3056
 20
3.4739
 30
0
 11
12.0972
 21
3.4739
 31
0
  0
LINE
  8
LAYER1
  6
CONTINUOUS
 62
     7
 10
12.3194
 20
3.5156
 30
0
 11
12.0694
 21
3.5156
 31
0
  0
LINE
  8
LAYER1
  6
CONTINUOUS
 62
     7
 10
12.3056
 20
3.5017
 30
0
 11
12.0972
 21
3.5017
 31
0
  0
LINE
  8
LAYER1
  6
CONTINUOUS
 62
     7
 10
12.3194
 20
3.5434
 30
0
 11
12.0694
 21
3.5434
 31
0
  0
LINE
  8
LAYER1
  6
CONTINUOUS
 62
     7
 10
12.3056
 20
3.5295
 30
0
 11
12.0972
 21
3.5295
 31
0
  0
LINE
  8
LAYER1
  6
CONTINUOUS
 62
     7
 10
12.3194
 20
3.5712
 30
0
 11
12.0694
 21
3.5712
 31
0
  0
LINE
  8
LAYER1
  6
CONTINUOUS
 62
     7
 10
12.3056
 20
3.5573
 30
0
 11
12.0972
 21
3.5573
 31
0
  0
LINE
  8
LAYER1
  6
CONTINUOUS
 62
     7
 10
12.3194
 20
3.6128
 30
0
 11
12.0694
 21
3.6128
 31
0
  0
LINE
  8
LAYER1
  6
CONTINUOUS
 62
     7
 10
12.3056
 20
3.5989
 30
0
 11
12.0972
 21
3.5989
 31
0
  0
LINE
  8
LAYER1
  6
CONTINUOUS
 62
     7
 10
12.3194
 20
3.6406
 30
0
 11
12.0694
 21
3.6406
 31
0
  0
LINE
  8
LAYER1
  6
CONTINUOUS
 62
     7
 10
12.3056
 20
3.6267
 30
0
 11
12.0972
 21
3.6267
 31
0
  0
LINE
  8
LAYER1
  6
CONTINUOUS
 62
     7
 10
12.3194
 20
3.6684
 30
0
 11
12.0694
 21
3.6684
 31
0
  0
LINE
  8
LAYER1
  6
CONTINUOUS
 62
     7
 10
12.3056
 20
3.6545
 30
0
 11
12.0972
 21
3.6545
 31
0
  0
LINE
  8
LAYER1
  6
CONTINUOUS
 62
     7
 10
12.3194
 20
3.6823
 30
0
 11
12.0694
 21
3.6823
 31
0
  0
LINE
  8
LAYER1
  6
CONTINUOUS
 62
     7
 10
12.3194
 20
3.6823
 30
0
 11
12.3194
 21
2.4323
 31
0
  0
INSERT
  8
LAYER1
  2
Group34
 10
0
 20
0
 30
0
  0
ENDBLK
  8
LAYER1
  0
BLOCK
  8
LAYER1
  2
Group36
 70
     0
 10
0
 20
0
 30
0
  0
LINE
  8
LAYER1
  6
CONTINUOUS
 62
     7
 10
11.4722
 20
3.6823
 30
0
 11
11.4722
 21
2.6823
 31
0
  0
LINE
  8
LAYER1
  6
CONTINUOUS
 62
     7
 10
11.4722
 20
3.6823
 30
0
 11
11.4583
 21
3.7101
 31
0
  0
ENDBLK
  8
LAYER1
  0
BLOCK
  8
LAYER1
  2
Group37
 70
     0
 10
0
 20
0
 30
0
  0
LINE
  8
LAYER1
  6
CONTINUOUS
 62
     7
 10
12.3194
 20
3.6823
 30
0
 11
12.3333
 21
3.7101
 31
0
  0
LINE
  8
LAYER1
  6
CONTINUOUS
 62
     7
 10
11.7222
 20
2.6823
 30
0
 11
11.4722
 21
2.6823
 31
0
  0
LINE
  8
LAYER1
  6
CONTINUOUS
 62
     7
 10
11.7083
 20
2.6684
 30
0
 11
11.4861
 21
2.6684
 31
0
  0
LINE
  8
LAYER1
  6
CONTINUOUS
 62
     7
 10
11.7222
 20
2.7378
 30
0
 11
11.4722
 21
2.7378
 31
0
  0
LINE
  8
LAYER1
  6
CONTINUOUS
 62
     7
 10
11.7083
 20
2.7101
 30
0
 11
11.4861
 21
2.7101
 31
0
  0
LINE
  8
LAYER1
  6
CONTINUOUS
 62
     7
 10
11.7222
 20
2.7656
 30
0
 11
11.4722
 21
2.7656
 31
0
  0
LINE
  8
LAYER1
  6
CONTINUOUS
 62
     7
 10
11.7083
 20
2.7517
 30
0
 11
11.4861
 21
2.7517
 31
0
  0
LINE
  8
LAYER1
  6
CONTINUOUS
 62
     7
 10
11.7222
 20
2.7934
 30
0
 11
11.4722
 21
2.7934
 31
0
  0
LINE
  8
LAYER1
  6
CONTINUOUS
 62
     7
 10
11.7083
 20
2.7795
 30
0
 11
11.4861
 21
2.7795
 31
0
  0
LINE
  8
LAYER1
  6
CONTINUOUS
 62
     7
 10
11.7222
 20
2.8212
 30
0
 11
11.4722
 21
2.8212
 31
0
  0
LINE
  8
LAYER1
  6
CONTINUOUS
 62
     7
 10
11.7083
 20
2.8073
 30
0
 11
11.4861
 21
2.8073
 31
0
  0
LINE
  8
LAYER1
  6
CONTINUOUS
 62
     7
 10
11.7222
 20
2.8628
 30
0
 11
11.4722
 21
2.8628
 31
0
  0
LINE
  8
LAYER1
  6
CONTINUOUS
 62
     7
 10
11.7083
 20
2.8489
 30
0
 11
11.4861
 21
2.8489
 31
0
  0
LINE
  8
LAYER1
  6
CONTINUOUS
 62
     7
 10
11.7222
 20
2.8906
 30
0
 11
11.4722
 21
2.8906
 31
0
  0
LINE
  8
LAYER1
  6
CONTINUOUS
 62
     7
 10
11.7083
 20
2.8767
 30
0
 11
11.4861
 21
2.8767
 31
0
  0
LINE
  8
LAYER1
  6
CONTINUOUS
 62
     7
 10
11.7222
 20
2.9184
 30
0
 11
11.4722
 21
2.9184
 31
0
  0
LINE
  8
LAYER1
  6
CONTINUOUS
 62
     7
 10
11.7083
 20
2.9045
 30
0
 11
11.4861
 21
2.9045
 31
0
  0
LINE
  8
LAYER1
  6
CONTINUOUS
 62
     7
 10
11.7222
 20
2.9462
 30
0
 11
11.4722
 21
2.9462
 31
0
  0
LINE
  8
LAYER1
  6
CONTINUOUS
 62
     7
 10
11.7083
 20
2.9323
 30
0
 11
11.4861
 21
2.9323
 31
0
  0
LINE
  8
LAYER1
  6
CONTINUOUS
 62
     7
 10
11.7222
 20
2.9878
 30
0
 11
11.4722
 21
2.9878
 31
0
  0
LINE
  8
LAYER1
  6
CONTINUOUS
 62
     7
 10
11.7083
 20
2.9739
 30
0
 11
11.4861
 21
2.9739
 31
0
  0
LINE
  8
LAYER1
  6
CONTINUOUS
 62
     7
 10
11.7222
 20
3.0156
 30
0
 11
11.4722
 21
3.0156
 31
0
  0
LINE
  8
LAYER1
  6
CONTINUOUS
 62
     7
 10
11.7083
 20
3.0017
 30
0
 11
11.4861
 21
3.0017
 31
0
  0
LINE
  8
LAYER1
  6
CONTINUOUS
 62
     7
 10
11.7222
 20
3.0434
 30
0
 11
11.4722
 21
3.0434
 31
0
  0
LINE
  8
LAYER1
  6
CONTINUOUS
 62
     7
 10
11.7083
 20
3.0295
 30
0
 11
11.4861
 21
3.0295
 31
0
  0
LINE
  8
LAYER1
  6
CONTINUOUS
 62
     7
 10
11.7222
 20
2.6823
 30
0
 11
11.7083
 21
2.6684
 31
0
  0
LINE
  8
LAYER1
  6
CONTINUOUS
 62
     7
 10
11.4722
 20
2.6823
 30
0
 11
11.4861
 21
2.6684
 31
0
  0
LINE
  8
LAYER1
  6
CONTINUOUS
 62
     7
 10
11.7222
 20
3.0712
 30
0
 11
11.4722
 21
3.0712
 31
0
  0
LINE
  8
LAYER1
  6
CONTINUOUS
 62
     7
 10
11.7083
 20
3.0573
 30
0
 11
11.4861
 21
3.0573
 31
0
  0
LINE
  8
LAYER1
  6
CONTINUOUS
 62
     7
 10
11.7222
 20
3.1128
 30
0
 11
11.4722
 21
3.1128
 31
0
  0
LINE
  8
LAYER1
  6
CONTINUOUS
 62
     7
 10
11.7083
 20
3.0989
 30
0
 11
11.4861
 21
3.0989
 31
0
  0
LINE
  8
LAYER1
  6
CONTINUOUS
 62
     7
 10
11.7222
 20
3.1406
 30
0
 11
11.4722
 21
3.1406
 31
0
  0
LINE
  8
LAYER1
  6
CONTINUOUS
 62
     7
 10
11.7083
 20
3.1267
 30
0
 11
11.4861
 21
3.1267
 31
0
  0
LINE
  8
LAYER1
  6
CONTINUOUS
 62
     7
 10
11.7222
 20
3.1684
 30
0
 11
11.4722
 21
3.1684
 31
0
  0
LINE
  8
LAYER1
  6
CONTINUOUS
 62
     7
 10
11.7083
 20
3.1545
 30
0
 11
11.4861
 21
3.1545
 31
0
  0
LINE
  8
LAYER1
  6
CONTINUOUS
 62
     7
 10
11.7222
 20
3.1962
 30
0
 11
11.4722
 21
3.1962
 31
0
  0
LINE
  8
LAYER1
  6
CONTINUOUS
 62
     7
 10
11.7083
 20
3.1823
 30
0
 11
11.4861
 21
3.1823
 31
0
  0
LINE
  8
LAYER1
  6
CONTINUOUS
 62
     7
 10
11.7222
 20
3.2378
 30
0
 11
11.4722
 21
3.2378
 31
0
  0
LINE
  8
LAYER1
  6
CONTINUOUS
 62
     7
 10
11.7083
 20
3.2239
 30
0
 11
11.4861
 21
3.2239
 31
0
  0
LINE
  8
LAYER1
  6
CONTINUOUS
 62
     7
 10
11.7222
 20
3.2656
 30
0
 11
11.4722
 21
3.2656
 31
0
  0
LINE
  8
LAYER1
  6
CONTINUOUS
 62
     7
 10
11.7083
 20
3.2517
 30
0
 11
11.4861
 21
3.2517
 31
0
  0
LINE
  8
LAYER1
  6
CONTINUOUS
 62
     7
 10
11.7222
 20
3.2934
 30
0
 11
11.4722
 21
3.2934
 31
0
  0
LINE
  8
LAYER1
  6
CONTINUOUS
 62
     7
 10
11.7083
 20
3.2795
 30
0
 11
11.4861
 21
3.2795
 31
0
  0
LINE
  8
LAYER1
  6
CONTINUOUS
 62
     7
 10
11.7222
 20
3.3212
 30
0
 11
11.4722
 21
3.3212
 31
0
  0
LINE
  8
LAYER1
  6
CONTINUOUS
 62
     7
 10
11.7083
 20
3.3073
 30
0
 11
11.4861
 21
3.3073
 31
0
  0
LINE
  8
LAYER1
  6
CONTINUOUS
 62
     7
 10
11.7222
 20
3.3628
 30
0
 11
11.4722
 21
3.3628
 31
0
  0
LINE
  8
LAYER1
  6
CONTINUOUS
 62
     7
 10
11.7083
 20
3.3489
 30
0
 11
11.4861
 21
3.3489
 31
0
  0
LINE
  8
LAYER1
  6
CONTINUOUS
 62
     7
 10
11.7222
 20
3.3906
 30
0
 11
11.4722
 21
3.3906
 31
0
  0
LINE
  8
LAYER1
  6
CONTINUOUS
 62
     7
 10
11.7083
 20
3.3767
 30
0
 11
11.4861
 21
3.3767
 31
0
  0
LINE
  8
LAYER1
  6
CONTINUOUS
 62
     7
 10
11.7222
 20
3.4184
 30
0
 11
11.4722
 21
3.4184
 31
0
  0
LINE
  8
LAYER1
  6
CONTINUOUS
 62
     7
 10
11.7083
 20
3.4045
 30
0
 11
11.4861
 21
3.4045
 31
0
  0
LINE
  8
LAYER1
  6
CONTINUOUS
 62
     7
 10
11.7222
 20
3.4462
 30
0
 11
11.4722
 21
3.4462
 31
0
  0
LINE
  8
LAYER1
  6
CONTINUOUS
 62
     7
 10
11.7083
 20
3.4323
 30
0
 11
11.4861
 21
3.4323
 31
0
  0
LINE
  8
LAYER1
  6
CONTINUOUS
 62
     7
 10
11.7222
 20
3.4878
 30
0
 11
11.4722
 21
3.4878
 31
0
  0
LINE
  8
LAYER1
  6
CONTINUOUS
 62
     7
 10
11.7083
 20
3.4739
 30
0
 11
11.4861
 21
3.4739
 31
0
  0
LINE
  8
LAYER1
  6
CONTINUOUS
 62
     7
 10
11.7222
 20
3.5156
 30
0
 11
11.4722
 21
3.5156
 31
0
  0
LINE
  8
LAYER1
  6
CONTINUOUS
 62
     7
 10
11.7083
 20
3.5017
 30
0
 11
11.4861
 21
3.5017
 31
0
  0
LINE
  8
LAYER1
  6
CONTINUOUS
 62
     7
 10
11.7222
 20
3.5434
 30
0
 11
11.4722
 21
3.5434
 31
0
  0
LINE
  8
LAYER1
  6
CONTINUOUS
 62
     7
 10
11.7083
 20
3.5295
 30
0
 11
11.4861
 21
3.5295
 31
0
  0
LINE
  8
LAYER1
  6
CONTINUOUS
 62
     7
 10
11.7222
 20
3.5712
 30
0
 11
11.4722
 21
3.5712
 31
0
  0
LINE
  8
LAYER1
  6
CONTINUOUS
 62
     7
 10
11.7083
 20
3.5573
 30
0
 11
11.4861
 21
3.5573
 31
0
  0
LINE
  8
LAYER1
  6
CONTINUOUS
 62
     7
 10
11.7222
 20
3.6128
 30
0
 11
11.4722
 21
3.6128
 31
0
  0
LINE
  8
LAYER1
  6
CONTINUOUS
 62
     7
 10
11.7083
 20
3.5989
 30
0
 11
11.4861
 21
3.5989
 31
0
  0
LINE
  8
LAYER1
  6
CONTINUOUS
 62
     7
 10
11.7222
 20
3.6406
 30
0
 11
11.4722
 21
3.6406
 31
0
  0
LINE
  8
LAYER1
  6
CONTINUOUS
 62
     7
 10
11.7083
 20
3.6267
 30
0
 11
11.4861
 21
3.6267
 31
0
  0
LINE
  8
LAYER1
  6
CONTINUOUS
 62
     7
 10
11.7222
 20
3.6684
 30
0
 11
11.4722
 21
3.6684
 31
0
  0
LINE
  8
LAYER1
  6
CONTINUOUS
 62
     7
 10
11.7083
 20
3.6545
 30
0
 11
11.4861
 21
3.6545
 31
0
  0
LINE
  8
LAYER1
  6
CONTINUOUS
 62
     7
 10
11.7222
 20
3.6823
 30
0
 11
11.4722
 21
3.6823
 31
0
  0
LINE
  8
LAYER1
  6
CONTINUOUS
 62
     7
 10
11.7222
 20
3.6823
 30
0
 11
11.7222
 21
2.6823
 31
0
  0
INSERT
  8
LAYER1
  2
Group36
 10
0
 20
0
 30
0
  0
ENDBLK
  8
LAYER1
  0
BLOCK
  8
LAYER1
  2
Group38
 70
     0
 10
0
 20
0
 30
0
  0
POLYLINE
  8
LAYER1
  6
CONTINUOUS
 62
     7
 66
     1
 70
     0
 40
0.001
 41
0.001
  0
VERTEX
  8
LAYER1
 10
13.9583
 20
1.6823
 30
0
 70
     0
  0
VERTEX
  8
LAYER1
 10
13.9583
 20
3.6823
 30
0
 70
     0
  0
VERTEX
  8
LAYER1
 10
13.9444
 20
3.7101
 30
0
 70
     0
  0
SEQEND
  0
ENDBLK
  8
LAYER1
  0
BLOCK
  8
LAYER1
  2
Group39
 70
     0
 10
0
 20
0
 30
0
  0
LINE
  8
LAYER1
  6
CONTINUOUS
 62
     7
 10
11.7222
 20
3.6823
 30
0
 11
11.7361
 21
3.7101
 31
0
  0
LINE
  8
LAYER1
  6
CONTINUOUS
 62
     7
 10
14.2083
 20
1.6823
 30
0
 11
13.9583
 21
1.6823
 31
0
  0
LINE
  8
LAYER1
  6
CONTINUOUS
 62
     7
 10
14.1806
 20
1.6684
 30
0
 11
13.9722
 21
1.6684
 31
0
  0
LINE
  8
LAYER1
  6
CONTINUOUS
 62
     7
 10
14.2083
 20
1.7378
 30
0
 11
13.9583
 21
1.7378
 31
0
  0
LINE
  8
LAYER1
  6
CONTINUOUS
 62
     7
 10
14.1806
 20
1.7101
 30
0
 11
13.9722
 21
1.7101
 31
0
  0
LINE
  8
LAYER1
  6
CONTINUOUS
 62
     7
 10
14.2083
 20
1.7656
 30
0
 11
13.9583
 21
1.7656
 31
0
  0
LINE
  8
LAYER1
  6
CONTINUOUS
 62
     7
 10
14.1806
 20
1.7517
 30
0
 11
13.9722
 21
1.7517
 31
0
  0
LINE
  8
LAYER1
  6
CONTINUOUS
 62
     7
 10
14.2083
 20
1.7934
 30
0
 11
13.9583
 21
1.7934
 31
0
  0
LINE
  8
LAYER1
  6
CONTINUOUS
 62
     7
 10
14.1806
 20
1.7795
 30
0
 11
13.9722
 21
1.7795
 31
0
  0
LINE
  8
LAYER1
  6
CONTINUOUS
 62
     7
 10
14.2083
 20
1.8212
 30
0
 11
13.9583
 21
1.8212
 31
0
  0
LINE
  8
LAYER1
  6
CONTINUOUS
 62
     7
 10
14.1806
 20
1.8073
 30
0
 11
13.9722
 21
1.8073
 31
0
  0
LINE
  8
LAYER1
  6
CONTINUOUS
 62
     7
 10
14.2083
 20
1.8628
 30
0
 11
13.9583
 21
1.8628
 31
0
  0
LINE
  8
LAYER1
  6
CONTINUOUS
 62
     7
 10
14.1806
 20
1.8489
 30
0
 11
13.9722
 21
1.8489
 31
0
  0
LINE
  8
LAYER1
  6
CONTINUOUS
 62
     7
 10
14.2083
 20
1.8906
 30
0
 11
13.9583
 21
1.8906
 31
0
  0
LINE
  8
LAYER1
  6
CONTINUOUS
 62
     7
 10
14.1806
 20
1.8767
 30
0
 11
13.9722
 21
1.8767
 31
0
  0
LINE
  8
LAYER1
  6
CONTINUOUS
 62
     7
 10
14.2083
 20
1.9184
 30
0
 11
13.9583
 21
1.9184
 31
0
  0
LINE
  8
LAYER1
  6
CONTINUOUS
 62
     7
 10
14.1806
 20
1.9045
 30
0
 11
13.9722
 21
1.9045
 31
0
  0
LINE
  8
LAYER1
  6
CONTINUOUS
 62
     7
 10
14.2083
 20
1.9462
 30
0
 11
13.9583
 21
1.9462
 31
0
  0
LINE
  8
LAYER1
  6
CONTINUOUS
 62
     7
 10
14.1806
 20
1.9323
 30
0
 11
13.9722
 21
1.9323
 31
0
  0
LINE
  8
LAYER1
  6
CONTINUOUS
 62
     7
 10
14.2083
 20
1.9878
 30
0
 11
13.9583
 21
1.9878
 31
0
  0
LINE
  8
LAYER1
  6
CONTINUOUS
 62
     7
 10
14.1806
 20
1.9739
 30
0
 11
13.9722
 21
1.9739
 31
0
  0
LINE
  8
LAYER1
  6
CONTINUOUS
 62
     7
 10
14.2083
 20
2.0156
 30
0
 11
13.9583
 21
2.0156
 31
0
  0
LINE
  8
LAYER1
  6
CONTINUOUS
 62
     7
 10
14.1806
 20
2.0017
 30
0
 11
13.9722
 21
2.0017
 31
0
  0
LINE
  8
LAYER1
  6
CONTINUOUS
 62
     7
 10
14.2083
 20
2.0434
 30
0
 11
13.9583
 21
2.0434
 31
0
  0
LINE
  8
LAYER1
  6
CONTINUOUS
 62
     7
 10
14.1806
 20
2.0295
 30
0
 11
13.9722
 21
2.0295
 31
0
  0
LINE
  8
LAYER1
  6
CONTINUOUS
 62
     7
 10
14.2083
 20
1.6823
 30
0
 11
14.1806
 21
1.6684
 31
0
  0
LINE
  8
LAYER1
  6
CONTINUOUS
 62
     7
 10
13.9583
 20
1.6823
 30
0
 11
13.9722
 21
1.6684
 31
0
  0
LINE
  8
LAYER1
  6
CONTINUOUS
 62
     7
 10
14.2083
 20
2.0712
 30
0
 11
13.9583
 21
2.0712
 31
0
  0
LINE
  8
LAYER1
  6
CONTINUOUS
 62
     7
 10
14.1806
 20
2.0573
 30
0
 11
13.9722
 21
2.0573
 31
0
  0
LINE
  8
LAYER1
  6
CONTINUOUS
 62
     7
 10
14.2083
 20
2.1128
 30
0
 11
13.9583
 21
2.1128
 31
0
  0
LINE
  8
LAYER1
  6
CONTINUOUS
 62
     7
 10
14.1806
 20
2.0989
 30
0
 11
13.9722
 21
2.0989
 31
0
  0
LINE
  8
LAYER1
  6
CONTINUOUS
 62
     7
 10
14.2083
 20
2.1406
 30
0
 11
13.9583
 21
2.1406
 31
0
  0
LINE
  8
LAYER1
  6
CONTINUOUS
 62
     7
 10
14.1806
 20
2.1267
 30
0
 11
13.9722
 21
2.1267
 31
0
  0
LINE
  8
LAYER1
  6
CONTINUOUS
 62
     7
 10
14.2083
 20
2.1684
 30
0
 11
13.9583
 21
2.1684
 31
0
  0
LINE
  8
LAYER1
  6
CONTINUOUS
 62
     7
 10
14.1806
 20
2.1545
 30
0
 11
13.9722
 21
2.1545
 31
0
  0
LINE
  8
LAYER1
  6
CONTINUOUS
 62
     7
 10
14.2083
 20
2.1962
 30
0
 11
13.9583
 21
2.1962
 31
0
  0
LINE
  8
LAYER1
  6
CONTINUOUS
 62
     7
 10
14.1806
 20
2.1823
 30
0
 11
13.9722
 21
2.1823
 31
0
  0
LINE
  8
LAYER1
  6
CONTINUOUS
 62
     7
 10
14.2083
 20
2.2378
 30
0
 11
13.9583
 21
2.2378
 31
0
  0
LINE
  8
LAYER1
  6
CONTINUOUS
 62
     7
 10
14.1806
 20
2.2239
 30
0
 11
13.9722
 21
2.2239
 31
0
  0
LINE
  8
LAYER1
  6
CONTINUOUS
 62
     7
 10
14.2083
 20
2.2656
 30
0
 11
13.9583
 21
2.2656
 31
0
  0
LINE
  8
LAYER1
  6
CONTINUOUS
 62
     7
 10
14.1806
 20
2.2517
 30
0
 11
13.9722
 21
2.2517
 31
0
  0
LINE
  8
LAYER1
  6
CONTINUOUS
 62
     7
 10
14.2083
 20
2.2934
 30
0
 11
13.9583
 21
2.2934
 31
0
  0
LINE
  8
LAYER1
  6
CONTINUOUS
 62
     7
 10
14.1806
 20
2.2795
 30
0
 11
13.9722
 21
2.2795
 31
0
  0
LINE
  8
LAYER1
  6
CONTINUOUS
 62
     7
 10
14.2083
 20
2.3212
 30
0
 11
13.9583
 21
2.3212
 31
0
  0
LINE
  8
LAYER1
  6
CONTINUOUS
 62
     7
 10
14.1806
 20
2.3073
 30
0
 11
13.9722
 21
2.3073
 31
0
  0
LINE
  8
LAYER1
  6
CONTINUOUS
 62
     7
 10
14.2083
 20
2.3628
 30
0
 11
13.9583
 21
2.3628
 31
0
  0
LINE
  8
LAYER1
  6
CONTINUOUS
 62
     7
 10
14.1806
 20
2.3489
 30
0
 11
13.9722
 21
2.3489
 31
0
  0
LINE
  8
LAYER1
  6
CONTINUOUS
 62
     7
 10
14.2083
 20
2.3906
 30
0
 11
13.9583
 21
2.3906
 31
0
  0
LINE
  8
LAYER1
  6
CONTINUOUS
 62
     7
 10
14.1806
 20
2.3767
 30
0
 11
13.9722
 21
2.3767
 31
0
  0
LINE
  8
LAYER1
  6
CONTINUOUS
 62
     7
 10
14.2083
 20
2.4184
 30
0
 11
13.9583
 21
2.4184
 31
0
  0
LINE
  8
LAYER1
  6
CONTINUOUS
 62
     7
 10
14.1806
 20
2.4045
 30
0
 11
13.9722
 21
2.4045
 31
0
  0
LINE
  8
LAYER1
  6
CONTINUOUS
 62
     7
 10
14.2083
 20
2.4462
 30
0
 11
13.9583
 21
2.4462
 31
0
  0
LINE
  8
LAYER1
  6
CONTINUOUS
 62
     7
 10
14.1806
 20
2.4323
 30
0
 11
13.9722
 21
2.4323
 31
0
  0
LINE
  8
LAYER1
  6
CONTINUOUS
 62
     7
 10
14.2083
 20
2.4878
 30
0
 11
13.9583
 21
2.4878
 31
0
  0
LINE
  8
LAYER1
  6
CONTINUOUS
 62
     7
 10
14.1806
 20
2.4739
 30
0
 11
13.9722
 21
2.4739
 31
0
  0
LINE
  8
LAYER1
  6
CONTINUOUS
 62
     7
 10
14.2083
 20
2.5156
 30
0
 11
13.9583
 21
2.5156
 31
0
  0
LINE
  8
LAYER1
  6
CONTINUOUS
 62
     7
 10
14.1806
 20
2.5017
 30
0
 11
13.9722
 21
2.5017
 31
0
  0
LINE
  8
LAYER1
  6
CONTINUOUS
 62
     7
 10
14.2083
 20
2.5434
 30
0
 11
13.9583
 21
2.5434
 31
0
  0
LINE
  8
LAYER1
  6
CONTINUOUS
 62
     7
 10
14.1806
 20
2.5295
 30
0
 11
13.9722
 21
2.5295
 31
0
  0
LINE
  8
LAYER1
  6
CONTINUOUS
 62
     7
 10
14.2083
 20
2.5712
 30
0
 11
13.9583
 21
2.5712
 31
0
  0
LINE
  8
LAYER1
  6
CONTINUOUS
 62
     7
 10
14.1806
 20
2.5573
 30
0
 11
13.9722
 21
2.5573
 31
0
  0
LINE
  8
LAYER1
  6
CONTINUOUS
 62
     7
 10
14.2083
 20
2.6128
 30
0
 11
13.9583
 21
2.6128
 31
0
  0
LINE
  8
LAYER1
  6
CONTINUOUS
 62
     7
 10
14.1806
 20
2.5989
 30
0
 11
13.9722
 21
2.5989
 31
0
  0
LINE
  8
LAYER1
  6
CONTINUOUS
 62
     7
 10
14.2083
 20
2.6406
 30
0
 11
13.9583
 21
2.6406
 31
0
  0
LINE
  8
LAYER1
  6
CONTINUOUS
 62
     7
 10
14.1806
 20
2.6267
 30
0
 11
13.9722
 21
2.6267
 31
0
  0
LINE
  8
LAYER1
  6
CONTINUOUS
 62
     7
 10
14.2083
 20
2.6684
 30
0
 11
13.9583
 21
2.6684
 31
0
  0
LINE
  8
LAYER1
  6
CONTINUOUS
 62
     7
 10
14.1806
 20
2.6545
 30
0
 11
13.9722
 21
2.6545
 31
0
  0
LINE
  8
LAYER1
  6
CONTINUOUS
 62
     7
 10
14.2083
 20
2.6962
 30
0
 11
13.9583
 21
2.6962
 31
0
  0
LINE
  8
LAYER1
  6
CONTINUOUS
 62
     7
 10
14.1806
 20
2.6823
 30
0
 11
13.9722
 21
2.6823
 31
0
  0
LINE
  8
LAYER1
  6
CONTINUOUS
 62
     7
 10
14.2083
 20
2.7378
 30
0
 11
13.9583
 21
2.7378
 31
0
  0
LINE
  8
LAYER1
  6
CONTINUOUS
 62
     7
 10
14.1806
 20
2.7239
 30
0
 11
13.9722
 21
2.7239
 31
0
  0
LINE
  8
LAYER1
  6
CONTINUOUS
 62
     7
 10
14.2083
 20
2.7656
 30
0
 11
13.9583
 21
2.7656
 31
0
  0
LINE
  8
LAYER1
  6
CONTINUOUS
 62
     7
 10
14.1806
 20
2.7517
 30
0
 11
13.9722
 21
2.7517
 31
0
  0
LINE
  8
LAYER1
  6
CONTINUOUS
 62
     7
 10
14.2083
 20
2.7934
 30
0
 11
13.9583
 21
2.7934
 31
0
  0
LINE
  8
LAYER1
  6
CONTINUOUS
 62
     7
 10
14.1806
 20
2.7795
 30
0
 11
13.9722
 21
2.7795
 31
0
  0
LINE
  8
LAYER1
  6
CONTINUOUS
 62
     7
 10
14.2083
 20
2.8212
 30
0
 11
13.9583
 21
2.8212
 31
0
  0
LINE
  8
LAYER1
  6
CONTINUOUS
 62
     7
 10
14.1806
 20
2.8073
 30
0
 11
13.9722
 21
2.8073
 31
0
  0
LINE
  8
LAYER1
  6
CONTINUOUS
 62
     7
 10
14.2083
 20
2.8628
 30
0
 11
13.9583
 21
2.8628
 31
0
  0
LINE
  8
LAYER1
  6
CONTINUOUS
 62
     7
 10
14.1806
 20
2.8489
 30
0
 11
13.9722
 21
2.8489
 31
0
  0
LINE
  8
LAYER1
  6
CONTINUOUS
 62
     7
 10
14.2083
 20
2.8906
 30
0
 11
13.9583
 21
2.8906
 31
0
  0
LINE
  8
LAYER1
  6
CONTINUOUS
 62
     7
 10
14.1806
 20
2.8767
 30
0
 11
13.9722
 21
2.8767
 31
0
  0
LINE
  8
LAYER1
  6
CONTINUOUS
 62
     7
 10
14.2083
 20
2.9184
 30
0
 11
13.9583
 21
2.9184
 31
0
  0
LINE
  8
LAYER1
  6
CONTINUOUS
 62
     7
 10
14.1806
 20
2.9045
 30
0
 11
13.9722
 21
2.9045
 31
0
  0
LINE
  8
LAYER1
  6
CONTINUOUS
 62
     7
 10
14.2083
 20
2.9601
 30
0
 11
13.9583
 21
2.9601
 31
0
  0
LINE
  8
LAYER1
  6
CONTINUOUS
 62
     7
 10
14.1806
 20
2.9323
 30
0
 11
13.9722
 21
2.9323
 31
0
  0
LINE
  8
LAYER1
  6
CONTINUOUS
 62
     7
 10
14.2083
 20
2.9878
 30
0
 11
13.9583
 21
2.9878
 31
0
  0
LINE
  8
LAYER1
  6
CONTINUOUS
 62
     7
 10
14.1806
 20
2.9739
 30
0
 11
13.9722
 21
2.9739
 31
0
  0
LINE
  8
LAYER1
  6
CONTINUOUS
 62
     7
 10
14.2083
 20
3.0156
 30
0
 11
13.9583
 21
3.0156
 31
0
  0
LINE
  8
LAYER1
  6
CONTINUOUS
 62
     7
 10
14.1806
 20
3.0017
 30
0
 11
13.9722
 21
3.0017
 31
0
  0
LINE
  8
LAYER1
  6
CONTINUOUS
 62
     7
 10
14.2083
 20
3.0434
 30
0
 11
13.9583
 21
3.0434
 31
0
  0
LINE
  8
LAYER1
  6
CONTINUOUS
 62
     7
 10
14.1806
 20
3.0295
 30
0
 11
13.9722
 21
3.0295
 31
0
  0
LINE
  8
LAYER1
  6
CONTINUOUS
 62
     7
 10
14.2083
 20
3.0851
 30
0
 11
13.9583
 21
3.0851
 31
0
  0
LINE
  8
LAYER1
  6
CONTINUOUS
 62
     7
 10
14.1806
 20
3.0573
 30
0
 11
13.9722
 21
3.0573
 31
0
  0
LINE
  8
LAYER1
  6
CONTINUOUS
 62
     7
 10
14.2083
 20
3.1128
 30
0
 11
13.9583
 21
3.1128
 31
0
  0
LINE
  8
LAYER1
  6
CONTINUOUS
 62
     7
 10
14.1806
 20
3.0989
 30
0
 11
13.9722
 21
3.0989
 31
0
  0
LINE
  8
LAYER1
  6
CONTINUOUS
 62
     7
 10
14.2083
 20
3.1406
 30
0
 11
13.9583
 21
3.1406
 31
0
  0
LINE
  8
LAYER1
  6
CONTINUOUS
 62
     7
 10
14.1806
 20
3.1267
 30
0
 11
13.9722
 21
3.1267
 31
0
  0
LINE
  8
LAYER1
  6
CONTINUOUS
 62
     7
 10
14.2083
 20
3.1684
 30
0
 11
13.9583
 21
3.1684
 31
0
  0
LINE
  8
LAYER1
  6
CONTINUOUS
 62
     7
 10
14.1806
 20
3.1545
 30
0
 11
13.9722
 21
3.1545
 31
0
  0
LINE
  8
LAYER1
  6
CONTINUOUS
 62
     7
 10
14.2083
 20
3.2101
 30
0
 11
13.9583
 21
3.2101
 31
0
  0
LINE
  8
LAYER1
  6
CONTINUOUS
 62
     7
 10
14.1806
 20
3.1823
 30
0
 11
13.9722
 21
3.1823
 31
0
  0
LINE
  8
LAYER1
  6
CONTINUOUS
 62
     7
 10
14.2083
 20
3.2378
 30
0
 11
13.9583
 21
3.2378
 31
0
  0
LINE
  8
LAYER1
  6
CONTINUOUS
 62
     7
 10
14.1806
 20
3.2239
 30
0
 11
13.9722
 21
3.2239
 31
0
  0
LINE
  8
LAYER1
  6
CONTINUOUS
 62
     7
 10
14.2083
 20
3.2656
 30
0
 11
13.9583
 21
3.2656
 31
0
  0
LINE
  8
LAYER1
  6
CONTINUOUS
 62
     7
 10
14.1806
 20
3.2517
 30
0
 11
13.9722
 21
3.2517
 31
0
  0
LINE
  8
LAYER1
  6
CONTINUOUS
 62
     7
 10
14.2083
 20
3.2934
 30
0
 11
13.9583
 21
3.2934
 31
0
  0
LINE
  8
LAYER1
  6
CONTINUOUS
 62
     7
 10
14.1806
 20
3.2795
 30
0
 11
13.9722
 21
3.2795
 31
0
  0
LINE
  8
LAYER1
  6
CONTINUOUS
 62
     7
 10
14.2083
 20
3.3351
 30
0
 11
13.9583
 21
3.3351
 31
0
  0
LINE
  8
LAYER1
  6
CONTINUOUS
 62
     7
 10
14.1806
 20
3.3073
 30
0
 11
13.9722
 21
3.3073
 31
0
  0
LINE
  8
LAYER1
  6
CONTINUOUS
 62
     7
 10
14.2083
 20
3.3628
 30
0
 11
13.9583
 21
3.3628
 31
0
  0
LINE
  8
LAYER1
  6
CONTINUOUS
 62
     7
 10
14.1806
 20
3.3489
 30
0
 11
13.9722
 21
3.3489
 31
0
  0
LINE
  8
LAYER1
  6
CONTINUOUS
 62
     7
 10
14.2083
 20
3.3906
 30
0
 11
13.9583
 21
3.3906
 31
0
  0
LINE
  8
LAYER1
  6
CONTINUOUS
 62
     7
 10
14.1806
 20
3.3767
 30
0
 11
13.9722
 21
3.3767
 31
0
  0
LINE
  8
LAYER1
  6
CONTINUOUS
 62
     7
 10
14.2083
 20
3.4184
 30
0
 11
13.9583
 21
3.4184
 31
0
  0
LINE
  8
LAYER1
  6
CONTINUOUS
 62
     7
 10
14.1806
 20
3.4045
 30
0
 11
13.9722
 21
3.4045
 31
0
  0
LINE
  8
LAYER1
  6
CONTINUOUS
 62
     7
 10
14.2083
 20
3.4601
 30
0
 11
13.9583
 21
3.4601
 31
0
  0
LINE
  8
LAYER1
  6
CONTINUOUS
 62
     7
 10
14.1806
 20
3.4323
 30
0
 11
13.9722
 21
3.4323
 31
0
  0
LINE
  8
LAYER1
  6
CONTINUOUS
 62
     7
 10
14.2083
 20
3.4878
 30
0
 11
13.9583
 21
3.4878
 31
0
  0
LINE
  8
LAYER1
  6
CONTINUOUS
 62
     7
 10
14.1806
 20
3.4739
 30
0
 11
13.9722
 21
3.4739
 31
0
  0
LINE
  8
LAYER1
  6
CONTINUOUS
 62
     7
 10
14.2083
 20
3.5156
 30
0
 11
13.9583
 21
3.5156
 31
0
  0
LINE
  8
LAYER1
  6
CONTINUOUS
 62
     7
 10
14.1806
 20
3.5017
 30
0
 11
13.9722
 21
3.5017
 31
0
  0
LINE
  8
LAYER1
  6
CONTINUOUS
 62
     7
 10
14.2083
 20
3.5434
 30
0
 11
13.9583
 21
3.5434
 31
0
  0
LINE
  8
LAYER1
  6
CONTINUOUS
 62
     7
 10
14.1806
 20
3.5295
 30
0
 11
13.9722
 21
3.5295
 31
0
  0
LINE
  8
LAYER1
  6
CONTINUOUS
 62
     7
 10
14.2083
 20
3.5851
 30
0
 11
13.9583
 21
3.5851
 31
0
  0
LINE
  8
LAYER1
  6
CONTINUOUS
 62
     7
 10
14.1806
 20
3.5573
 30
0
 11
13.9722
 21
3.5573
 31
0
  0
LINE
  8
LAYER1
  6
CONTINUOUS
 62
     7
 10
14.2083
 20
3.6128
 30
0
 11
13.9583
 21
3.6128
 31
0
  0
LINE
  8
LAYER1
  6
CONTINUOUS
 62
     7
 10
14.1806
 20
3.5989
 30
0
 11
13.9722
 21
3.5989
 31
0
  0
LINE
  8
LAYER1
  6
CONTINUOUS
 62
     7
 10
14.2083
 20
3.6406
 30
0
 11
13.9583
 21
3.6406
 31
0
  0
LINE
  8
LAYER1
  6
CONTINUOUS
 62
     7
 10
14.1806
 20
3.6267
 30
0
 11
13.9722
 21
3.6267
 31
0
  0
LINE
  8
LAYER1
  6
CONTINUOUS
 62
     7
 10
14.2083
 20
3.6684
 30
0
 11
13.9583
 21
3.6684
 31
0
  0
LINE
  8
LAYER1
  6
CONTINUOUS
 62
     7
 10
14.1806
 20
3.6545
 30
0
 11
13.9722
 21
3.6545
 31
0
  0
LINE
  8
LAYER1
  6
CONTINUOUS
 62
     7
 10
14.2083
 20
3.6823
 30
0
 11
13.9583
 21
3.6823
 31
0
  0
LINE
  8
LAYER1
  6
CONTINUOUS
 62
     7
 10
14.2083
 20
3.6823
 30
0
 11
14.2083
 21
1.6823
 31
0
  0
INSERT
  8
LAYER1
  2
Group38
 10
0
 20
0
 30
0
  0
ENDBLK
  8
LAYER1
  0
BLOCK
  8
LAYER1
  2
Group40
 70
     0
 10
0
 20
0
 30
0
  0
LINE
  8
LAYER1
  6
CONTINUOUS
 62
     7
 10
13.25
 20
1.9323
 30
0
 11
13.25
 21
3.6684
 31
0
  0
LINE
  8
LAYER1
  6
CONTINUOUS
 62
     7
 10
13.25
 20
3.6823
 30
0
 11
13.25
 21
3.7101
 31
0
  0
ENDBLK
  8
LAYER1
  0
BLOCK
  8
LAYER1
  2
Group41
 70
     0
 10
0
 20
0
 30
0
  0
LINE
  8
LAYER1
  6
CONTINUOUS
 62
     7
 10
14.2083
 20
3.6823
 30
0
 11
14.2083
 21
3.7101
 31
0
  0
LINE
  8
LAYER1
  6
CONTINUOUS
 62
     7
 10
13.5
 20
1.9323
 30
0
 11
13.25
 21
1.9323
 31
0
  0
LINE
  8
LAYER1
  6
CONTINUOUS
 62
     7
 10
13.4861
 20
1.9184
 30
0
 11
13.2778
 21
1.9184
 31
0
  0
LINE
  8
LAYER1
  6
CONTINUOUS
 62
     7
 10
13.5
 20
1.9878
 30
0
 11
13.25
 21
1.9878
 31
0
  0
LINE
  8
LAYER1
  6
CONTINUOUS
 62
     7
 10
13.4861
 20
1.9601
 30
0
 11
13.2778
 21
1.9601
 31
0
  0
LINE
  8
LAYER1
  6
CONTINUOUS
 62
     7
 10
13.5
 20
2.0156
 30
0
 11
13.25
 21
2.0156
 31
0
  0
LINE
  8
LAYER1
  6
CONTINUOUS
 62
     7
 10
13.4861
 20
2.0017
 30
0
 11
13.2778
 21
2.0017
 31
0
  0
LINE
  8
LAYER1
  6
CONTINUOUS
 62
     7
 10
13.5
 20
2.0434
 30
0
 11
13.25
 21
2.0434
 31
0
  0
LINE
  8
LAYER1
  6
CONTINUOUS
 62
     7
 10
13.4861
 20
2.0295
 30
0
 11
13.2778
 21
2.0295
 31
0
  0
LINE
  8
LAYER1
  6
CONTINUOUS
 62
     7
 10
13.5
 20
2.0712
 30
0
 11
13.25
 21
2.0712
 31
0
  0
LINE
  8
LAYER1
  6
CONTINUOUS
 62
     7
 10
13.4861
 20
2.0573
 30
0
 11
13.2778
 21
2.0573
 31
0
  0
LINE
  8
LAYER1
  6
CONTINUOUS
 62
     7
 10
13.5
 20
2.1128
 30
0
 11
13.25
 21
2.1128
 31
0
  0
LINE
  8
LAYER1
  6
CONTINUOUS
 62
     7
 10
13.4861
 20
2.0989
 30
0
 11
13.2778
 21
2.0989
 31
0
  0
LINE
  8
LAYER1
  6
CONTINUOUS
 62
     7
 10
13.5
 20
2.1406
 30
0
 11
13.25
 21
2.1406
 31
0
  0
LINE
  8
LAYER1
  6
CONTINUOUS
 62
     7
 10
13.4861
 20
2.1267
 30
0
 11
13.2778
 21
2.1267
 31
0
  0
LINE
  8
LAYER1
  6
CONTINUOUS
 62
     7
 10
13.5
 20
2.1684
 30
0
 11
13.25
 21
2.1684
 31
0
  0
LINE
  8
LAYER1
  6
CONTINUOUS
 62
     7
 10
13.4861
 20
2.1545
 30
0
 11
13.2778
 21
2.1545
 31
0
  0
LINE
  8
LAYER1
  6
CONTINUOUS
 62
     7
 10
13.5
 20
2.1962
 30
0
 11
13.25
 21
2.1962
 31
0
  0
LINE
  8
LAYER1
  6
CONTINUOUS
 62
     7
 10
13.4861
 20
2.1823
 30
0
 11
13.2778
 21
2.1823
 31
0
  0
LINE
  8
LAYER1
  6
CONTINUOUS
 62
     7
 10
13.5
 20
2.2378
 30
0
 11
13.25
 21
2.2378
 31
0
  0
LINE
  8
LAYER1
  6
CONTINUOUS
 62
     7
 10
13.4861
 20
2.2239
 30
0
 11
13.2778
 21
2.2239
 31
0
  0
LINE
  8
LAYER1
  6
CONTINUOUS
 62
     7
 10
13.5
 20
2.2656
 30
0
 11
13.25
 21
2.2656
 31
0
  0
LINE
  8
LAYER1
  6
CONTINUOUS
 62
     7
 10
13.4861
 20
2.2517
 30
0
 11
13.2778
 21
2.2517
 31
0
  0
LINE
  8
LAYER1
  6
CONTINUOUS
 62
     7
 10
13.5
 20
2.2934
 30
0
 11
13.25
 21
2.2934
 31
0
  0
LINE
  8
LAYER1
  6
CONTINUOUS
 62
     7
 10
13.4861
 20
2.2795
 30
0
 11
13.2778
 21
2.2795
 31
0
  0
LINE
  8
LAYER1
  6
CONTINUOUS
 62
     7
 10
13.5
 20
1.9323
 30
0
 11
13.4861
 21
1.9184
 31
0
  0
LINE
  8
LAYER1
  6
CONTINUOUS
 62
     7
 10
13.25
 20
1.9323
 30
0
 11
13.2778
 21
1.9184
 31
0
  0
LINE
  8
LAYER1
  6
CONTINUOUS
 62
     7
 10
13.5
 20
2.3212
 30
0
 11
13.25
 21
2.3212
 31
0
  0
LINE
  8
LAYER1
  6
CONTINUOUS
 62
     7
 10
13.4861
 20
2.3073
 30
0
 11
13.2778
 21
2.3073
 31
0
  0
LINE
  8
LAYER1
  6
CONTINUOUS
 62
     7
 10
13.5
 20
2.3628
 30
0
 11
13.25
 21
2.3628
 31
0
  0
LINE
  8
LAYER1
  6
CONTINUOUS
 62
     7
 10
13.4861
 20
2.3489
 30
0
 11
13.2778
 21
2.3489
 31
0
  0
LINE
  8
LAYER1
  6
CONTINUOUS
 62
     7
 10
13.5
 20
2.3906
 30
0
 11
13.25
 21
2.3906
 31
0
  0
LINE
  8
LAYER1
  6
CONTINUOUS
 62
     7
 10
13.4861
 20
2.3767
 30
0
 11
13.2778
 21
2.3767
 31
0
  0
LINE
  8
LAYER1
  6
CONTINUOUS
 62
     7
 10
13.5
 20
2.4184
 30
0
 11
13.25
 21
2.4184
 31
0
  0
LINE
  8
LAYER1
  6
CONTINUOUS
 62
     7
 10
13.4861
 20
2.4045
 30
0
 11
13.2778
 21
2.4045
 31
0
  0
LINE
  8
LAYER1
  6
CONTINUOUS
 62
     7
 10
13.5
 20
2.4462
 30
0
 11
13.25
 21
2.4462
 31
0
  0
LINE
  8
LAYER1
  6
CONTINUOUS
 62
     7
 10
13.4861
 20
2.4323
 30
0
 11
13.2778
 21
2.4323
 31
0
  0
LINE
  8
LAYER1
  6
CONTINUOUS
 62
     7
 10
13.5
 20
2.4878
 30
0
 11
13.25
 21
2.4878
 31
0
  0
LINE
  8
LAYER1
  6
CONTINUOUS
 62
     7
 10
13.4861
 20
2.4739
 30
0
 11
13.2778
 21
2.4739
 31
0
  0
LINE
  8
LAYER1
  6
CONTINUOUS
 62
     7
 10
13.5
 20
2.5156
 30
0
 11
13.25
 21
2.5156
 31
0
  0
LINE
  8
LAYER1
  6
CONTINUOUS
 62
     7
 10
13.4861
 20
2.5017
 30
0
 11
13.2778
 21
2.5017
 31
0
  0
LINE
  8
LAYER1
  6
CONTINUOUS
 62
     7
 10
13.5
 20
2.5434
 30
0
 11
13.25
 21
2.5434
 31
0
  0
LINE
  8
LAYER1
  6
CONTINUOUS
 62
     7
 10
13.4861
 20
2.5295
 30
0
 11
13.2778
 21
2.5295
 31
0
  0
LINE
  8
LAYER1
  6
CONTINUOUS
 62
     7
 10
13.5
 20
2.5712
 30
0
 11
13.25
 21
2.5712
 31
0
  0
LINE
  8
LAYER1
  6
CONTINUOUS
 62
     7
 10
13.4861
 20
2.5573
 30
0
 11
13.2778
 21
2.5573
 31
0
  0
LINE
  8
LAYER1
  6
CONTINUOUS
 62
     7
 10
13.5
 20
2.6128
 30
0
 11
13.25
 21
2.6128
 31
0
  0
LINE
  8
LAYER1
  6
CONTINUOUS
 62
     7
 10
13.4861
 20
2.5989
 30
0
 11
13.2778
 21
2.5989
 31
0
  0
LINE
  8
LAYER1
  6
CONTINUOUS
 62
     7
 10
13.5
 20
2.6406
 30
0
 11
13.25
 21
2.6406
 31
0
  0
LINE
  8
LAYER1
  6
CONTINUOUS
 62
     7
 10
13.4861
 20
2.6267
 30
0
 11
13.2778
 21
2.6267
 31
0
  0
LINE
  8
LAYER1
  6
CONTINUOUS
 62
     7
 10
13.5
 20
2.6684
 30
0
 11
13.25
 21
2.6684
 31
0
  0
LINE
  8
LAYER1
  6
CONTINUOUS
 62
     7
 10
13.4861
 20
2.6545
 30
0
 11
13.2778
 21
2.6545
 31
0
  0
LINE
  8
LAYER1
  6
CONTINUOUS
 62
     7
 10
13.5
 20
2.6962
 30
0
 11
13.25
 21
2.6962
 31
0
  0
LINE
  8
LAYER1
  6
CONTINUOUS
 62
     7
 10
13.4861
 20
2.6823
 30
0
 11
13.2778
 21
2.6823
 31
0
  0
LINE
  8
LAYER1
  6
CONTINUOUS
 62
     7
 10
13.5
 20
2.7378
 30
0
 11
13.25
 21
2.7378
 31
0
  0
LINE
  8
LAYER1
  6
CONTINUOUS
 62
     7
 10
13.4861
 20
2.7239
 30
0
 11
13.2778
 21
2.7239
 31
0
  0
LINE
  8
LAYER1
  6
CONTINUOUS
 62
     7
 10
13.5
 20
2.7656
 30
0
 11
13.25
 21
2.7656
 31
0
  0
LINE
  8
LAYER1
  6
CONTINUOUS
 62
     7
 10
13.4861
 20
2.7517
 30
0
 11
13.2778
 21
2.7517
 31
0
  0
LINE
  8
LAYER1
  6
CONTINUOUS
 62
     7
 10
13.5
 20
2.7934
 30
0
 11
13.25
 21
2.7934
 31
0
  0
LINE
  8
LAYER1
  6
CONTINUOUS
 62
     7
 10
13.4861
 20
2.7795
 30
0
 11
13.2778
 21
2.7795
 31
0
  0
LINE
  8
LAYER1
  6
CONTINUOUS
 62
     7
 10
13.5
 20
2.8212
 30
0
 11
13.25
 21
2.8212
 31
0
  0
LINE
  8
LAYER1
  6
CONTINUOUS
 62
     7
 10
13.4861
 20
2.8073
 30
0
 11
13.2778
 21
2.8073
 31
0
  0
LINE
  8
LAYER1
  6
CONTINUOUS
 62
     7
 10
13.5
 20
2.8628
 30
0
 11
13.25
 21
2.8628
 31
0
  0
LINE
  8
LAYER1
  6
CONTINUOUS
 62
     7
 10
13.4861
 20
2.8489
 30
0
 11
13.2778
 21
2.8489
 31
0
  0
LINE
  8
LAYER1
  6
CONTINUOUS
 62
     7
 10
13.5
 20
2.8906
 30
0
 11
13.25
 21
2.8906
 31
0
  0
LINE
  8
LAYER1
  6
CONTINUOUS
 62
     7
 10
13.4861
 20
2.8767
 30
0
 11
13.2778
 21
2.8767
 31
0
  0
LINE
  8
LAYER1
  6
CONTINUOUS
 62
     7
 10
13.5
 20
2.9184
 30
0
 11
13.25
 21
2.9184
 31
0
  0
LINE
  8
LAYER1
  6
CONTINUOUS
 62
     7
 10
13.4861
 20
2.9045
 30
0
 11
13.2778
 21
2.9045
 31
0
  0
LINE
  8
LAYER1
  6
CONTINUOUS
 62
     7
 10
13.5
 20
2.9462
 30
0
 11
13.25
 21
2.9462
 31
0
  0
LINE
  8
LAYER1
  6
CONTINUOUS
 62
     7
 10
13.4861
 20
2.9323
 30
0
 11
13.2778
 21
2.9323
 31
0
  0
LINE
  8
LAYER1
  6
CONTINUOUS
 62
     7
 10
13.5
 20
2.9878
 30
0
 11
13.25
 21
2.9878
 31
0
  0
LINE
  8
LAYER1
  6
CONTINUOUS
 62
     7
 10
13.4861
 20
2.9739
 30
0
 11
13.2778
 21
2.9739
 31
0
  0
LINE
  8
LAYER1
  6
CONTINUOUS
 62
     7
 10
13.5
 20
3.0156
 30
0
 11
13.25
 21
3.0156
 31
0
  0
LINE
  8
LAYER1
  6
CONTINUOUS
 62
     7
 10
13.4861
 20
3.0017
 30
0
 11
13.2778
 21
3.0017
 31
0
  0
LINE
  8
LAYER1
  6
CONTINUOUS
 62
     7
 10
13.5
 20
3.0434
 30
0
 11
13.25
 21
3.0434
 31
0
  0
LINE
  8
LAYER1
  6
CONTINUOUS
 62
     7
 10
13.4861
 20
3.0295
 30
0
 11
13.2778
 21
3.0295
 31
0
  0
LINE
  8
LAYER1
  6
CONTINUOUS
 62
     7
 10
13.5
 20
3.0712
 30
0
 11
13.25
 21
3.0712
 31
0
  0
LINE
  8
LAYER1
  6
CONTINUOUS
 62
     7
 10
13.4861
 20
3.0573
 30
0
 11
13.2778
 21
3.0573
 31
0
  0
LINE
  8
LAYER1
  6
CONTINUOUS
 62
     7
 10
13.5
 20
3.1128
 30
0
 11
13.25
 21
3.1128
 31
0
  0
LINE
  8
LAYER1
  6
CONTINUOUS
 62
     7
 10
13.4861
 20
3.0989
 30
0
 11
13.2778
 21
3.0989
 31
0
  0
LINE
  8
LAYER1
  6
CONTINUOUS
 62
     7
 10
13.5
 20
3.1406
 30
0
 11
13.25
 21
3.1406
 31
0
  0
LINE
  8
LAYER1
  6
CONTINUOUS
 62
     7
 10
13.4861
 20
3.1267
 30
0
 11
13.2778
 21
3.1267
 31
0
  0
LINE
  8
LAYER1
  6
CONTINUOUS
 62
     7
 10
13.5
 20
3.1684
 30
0
 11
13.25
 21
3.1684
 31
0
  0
LINE
  8
LAYER1
  6
CONTINUOUS
 62
     7
 10
13.4861
 20
3.1545
 30
0
 11
13.2778
 21
3.1545
 31
0
  0
LINE
  8
LAYER1
  6
CONTINUOUS
 62
     7
 10
13.5
 20
3.2101
 30
0
 11
13.25
 21
3.2101
 31
0
  0
LINE
  8
LAYER1
  6
CONTINUOUS
 62
     7
 10
13.4861
 20
3.1823
 30
0
 11
13.2778
 21
3.1823
 31
0
  0
LINE
  8
LAYER1
  6
CONTINUOUS
 62
     7
 10
13.5
 20
3.2378
 30
0
 11
13.25
 21
3.2378
 31
0
  0
LINE
  8
LAYER1
  6
CONTINUOUS
 62
     7
 10
13.4861
 20
3.2239
 30
0
 11
13.2778
 21
3.2239
 31
0
  0
LINE
  8
LAYER1
  6
CONTINUOUS
 62
     7
 10
13.5
 20
3.2656
 30
0
 11
13.25
 21
3.2656
 31
0
  0
LINE
  8
LAYER1
  6
CONTINUOUS
 62
     7
 10
13.4861
 20
3.2517
 30
0
 11
13.2778
 21
3.2517
 31
0
  0
LINE
  8
LAYER1
  6
CONTINUOUS
 62
     7
 10
13.5
 20
3.2934
 30
0
 11
13.25
 21
3.2934
 31
0
  0
LINE
  8
LAYER1
  6
CONTINUOUS
 62
     7
 10
13.4861
 20
3.2795
 30
0
 11
13.2778
 21
3.2795
 31
0
  0
LINE
  8
LAYER1
  6
CONTINUOUS
 62
     7
 10
13.5
 20
3.3351
 30
0
 11
13.25
 21
3.3351
 31
0
  0
LINE
  8
LAYER1
  6
CONTINUOUS
 62
     7
 10
13.4861
 20
3.3073
 30
0
 11
13.2778
 21
3.3073
 31
0
  0
LINE
  8
LAYER1
  6
CONTINUOUS
 62
     7
 10
13.5
 20
3.3628
 30
0
 11
13.25
 21
3.3628
 31
0
  0
LINE
  8
LAYER1
  6
CONTINUOUS
 62
     7
 10
13.4861
 20
3.3489
 30
0
 11
13.2778
 21
3.3489
 31
0
  0
LINE
  8
LAYER1
  6
CONTINUOUS
 62
     7
 10
13.5
 20
3.3906
 30
0
 11
13.25
 21
3.3906
 31
0
  0
LINE
  8
LAYER1
  6
CONTINUOUS
 62
     7
 10
13.4861
 20
3.3767
 30
0
 11
13.2778
 21
3.3767
 31
0
  0
LINE
  8
LAYER1
  6
CONTINUOUS
 62
     7
 10
13.5
 20
3.4184
 30
0
 11
13.25
 21
3.4184
 31
0
  0
LINE
  8
LAYER1
  6
CONTINUOUS
 62
     7
 10
13.4861
 20
3.4045
 30
0
 11
13.2778
 21
3.4045
 31
0
  0
LINE
  8
LAYER1
  6
CONTINUOUS
 62
     7
 10
13.5
 20
3.4601
 30
0
 11
13.25
 21
3.4601
 31
0
  0
LINE
  8
LAYER1
  6
CONTINUOUS
 62
     7
 10
13.4861
 20
3.4323
 30
0
 11
13.2778
 21
3.4323
 31
0
  0
LINE
  8
LAYER1
  6
CONTINUOUS
 62
     7
 10
13.5
 20
3.4878
 30
0
 11
13.25
 21
3.4878
 31
0
  0
LINE
  8
LAYER1
  6
CONTINUOUS
 62
     7
 10
13.4861
 20
3.4739
 30
0
 11
13.2778
 21
3.4739
 31
0
  0
LINE
  8
LAYER1
  6
CONTINUOUS
 62
     7
 10
13.5
 20
3.5156
 30
0
 11
13.25
 21
3.5156
 31
0
  0
LINE
  8
LAYER1
  6
CONTINUOUS
 62
     7
 10
13.4861
 20
3.5017
 30
0
 11
13.2778
 21
3.5017
 31
0
  0
LINE
  8
LAYER1
  6
CONTINUOUS
 62
     7
 10
13.5
 20
3.5434
 30
0
 11
13.25
 21
3.5434
 31
0
  0
LINE
  8
LAYER1
  6
CONTINUOUS
 62
     7
 10
13.4861
 20
3.5295
 30
0
 11
13.2778
 21
3.5295
 31
0
  0
LINE
  8
LAYER1
  6
CONTINUOUS
 62
     7
 10
13.5
 20
3.5851
 30
0
 11
13.25
 21
3.5851
 31
0
  0
LINE
  8
LAYER1
  6
CONTINUOUS
 62
     7
 10
13.4861
 20
3.5573
 30
0
 11
13.2778
 21
3.5573
 31
0
  0
LINE
  8
LAYER1
  6
CONTINUOUS
 62
     7
 10
13.5
 20
3.6128
 30
0
 11
13.25
 21
3.6128
 31
0
  0
LINE
  8
LAYER1
  6
CONTINUOUS
 62
     7
 10
13.4861
 20
3.5989
 30
0
 11
13.2778
 21
3.5989
 31
0
  0
LINE
  8
LAYER1
  6
CONTINUOUS
 62
     7
 10
13.5
 20
3.6406
 30
0
 11
13.25
 21
3.6406
 31
0
  0
LINE
  8
LAYER1
  6
CONTINUOUS
 62
     7
 10
13.4861
 20
3.6267
 30
0
 11
13.2778
 21
3.6267
 31
0
  0
LINE
  8
LAYER1
  6
CONTINUOUS
 62
     7
 10
13.5
 20
3.6684
 30
0
 11
13.25
 21
3.6684
 31
0
  0
LINE
  8
LAYER1
  6
CONTINUOUS
 62
     7
 10
13.4861
 20
3.6545
 30
0
 11
13.2778
 21
3.6545
 31
0
  0
LINE
  8
LAYER1
  6
CONTINUOUS
 62
     7
 10
13.5
 20
3.6823
 30
0
 11
13.25
 21
3.6823
 31
0
  0
LINE
  8
LAYER1
  6
CONTINUOUS
 62
     7
 10
13.5
 20
3.6823
 30
0
 11
13.5
 21
1.9323
 31
0
  0
INSERT
  8
LAYER1
  2
Group40
 10
0
 20
0
 30
0
  0
ENDBLK
  8
LAYER1
  0
BLOCK
  8
LAYER1
  2
Group42
 70
     0
 10
0
 20
0
 30
0
  0
LINE
  8
LAYER1
  6
CONTINUOUS
 62
     7
 10
1.9306
 20
3.8073
 30
0
 11
1.9306
 21
3.7239
 31
0
  0
LINE
  8
LAYER1
  6
CONTINUOUS
 62
     7
 10
1.8333
 20
3.7239
 30
0
 11
1.8194
 21
3.7239
 31
0
  0
ENDBLK
  8
LAYER1
  0
BLOCK
  8
LAYER1
  2
Group43
 70
     0
 10
0
 20
0
 30
0
  0
LINE
  8
LAYER1
  6
CONTINUOUS
 62
     7
 10
1.8194
 20
3.6128
 30
0
 11
1.8194
 21
6.9323
 31
0
  0
LINE
  8
LAYER1
  6
CONTINUOUS
 62
     7
 10
1.875
 20
3.8073
 30
0
 11
1.875
 21
3.7378
 31
0
  0
LINE
  8
LAYER1
  6
CONTINUOUS
 62
     7
 10
1.9028
 20
3.8073
 30
0
 11
1.9028
 21
3.7378
 31
0
  0
LINE
  8
LAYER1
  6
CONTINUOUS
 62
     7
 10
1.8611
 20
3.8073
 30
0
 11
1.8611
 21
3.7239
 31
0
  0
LINE
  8
LAYER1
  6
CONTINUOUS
 62
     7
 10
1.8889
 20
3.8073
 30
0
 11
1.8889
 21
3.7239
 31
0
  0
LINE
  8
LAYER1
  6
CONTINUOUS
 62
     7
 10
1.9444
 20
3.8073
 30
0
 11
1.9444
 21
3.7378
 31
0
  0
LINE
  8
LAYER1
  6
CONTINUOUS
 62
     7
 10
1.8333
 20
3.8073
 30
0
 11
1.8333
 21
3.7239
 31
0
  0
LINE
  8
LAYER1
  6
CONTINUOUS
 62
     7
 10
1.9306
 20
3.8073
 30
0
 11
1.9444
 21
3.8073
 31
0
  0
LINE
  8
LAYER1
  6
CONTINUOUS
 62
     7
 10
1.9306
 20
3.7239
 30
0
 11
1.9444
 21
3.7378
 31
0
  0
LINE
  8
LAYER1
  6
CONTINUOUS
 62
     7
 10
1.8333
 20
3.8073
 30
0
 11
1.9306
 21
3.8073
 31
0
  0
LINE
  8
LAYER1
  6
CONTINUOUS
 62
     7
 10
1.8333
 20
3.7239
 30
0
 11
1.9306
 21
3.7239
 31
0
  0
INSERT
  8
LAYER1
  2
Group42
 10
0
 20
0
 30
0
  0
ENDBLK
  8
LAYER1
  0
BLOCK
  8
LAYER1
  2
Group44
 70
     0
 10
0
 20
0
 30
0
  0
LINE
  8
LAYER1
  6
CONTINUOUS
 62
     7
 10
1.8333
 20
4.2795
 30
0
 11
1.9583
 21
4.2795
 31
0
  0
LINE
  8
LAYER1
  6
CONTINUOUS
 62
     7
 10
1.8333
 20
4.2795
 30
0
 11
1.8194
 21
4.2795
 31
0
  0
ENDBLK
  8
LAYER1
  0
BLOCK
  8
LAYER1
  2
Group45
 70
     0
 10
0
 20
0
 30
0
  0
LINE
  8
LAYER1
  6
CONTINUOUS
 62
     7
 10
1.8333
 20
3.8073
 30
0
 11
1.8194
 21
3.8212
 31
0
  0
LINE
  8
LAYER1
  6
CONTINUOUS
 62
     7
 10
1.875
 20
4.3489
 30
0
 11
1.875
 21
4.2934
 31
0
  0
LINE
  8
LAYER1
  6
CONTINUOUS
 62
     7
 10
1.8611
 20
4.3628
 30
0
 11
1.8611
 21
4.2795
 31
0
  0
LINE
  8
LAYER1
  6
CONTINUOUS
 62
     7
 10
1.9028
 20
4.3489
 30
0
 11
1.9028
 21
4.2934
 31
0
  0
LINE
  8
LAYER1
  6
CONTINUOUS
 62
     7
 10
1.8889
 20
4.3628
 30
0
 11
1.8889
 21
4.2795
 31
0
  0
LINE
  8
LAYER1
  6
CONTINUOUS
 62
     7
 10
1.9306
 20
4.3489
 30
0
 11
1.9306
 21
4.2934
 31
0
  0
LINE
  8
LAYER1
  6
CONTINUOUS
 62
     7
 10
1.9167
 20
4.3628
 30
0
 11
1.9167
 21
4.2795
 31
0
  0
LINE
  8
LAYER1
  6
CONTINUOUS
 62
     7
 10
1.9861
 20
4.3489
 30
0
 11
1.9861
 21
4.2934
 31
0
  0
LINE
  8
LAYER1
  6
CONTINUOUS
 62
     7
 10
1.9583
 20
4.3628
 30
0
 11
1.9583
 21
4.2795
 31
0
  0
LINE
  8
LAYER1
  6
CONTINUOUS
 62
     7
 10
1.9861
 20
4.3489
 30
0
 11
1.9583
 21
4.3628
 31
0
  0
LINE
  8
LAYER1
  6
CONTINUOUS
 62
     7
 10
1.9583
 20
4.2795
 30
0
 11
1.9861
 21
4.2934
 31
0
  0
LINE
  8
LAYER1
  6
CONTINUOUS
 62
     7
 10
1.8333
 20
4.3628
 30
0
 11
1.8333
 21
4.2795
 31
0
  0
LINE
  8
LAYER1
  6
CONTINUOUS
 62
     7
 10
1.8333
 20
4.3628
 30
0
 11
1.9583
 21
4.3628
 31
0
  0
INSERT
  8
LAYER1
  2
Group44
 10
0
 20
0
 30
0
  0
ENDBLK
  8
LAYER1
  0
BLOCK
  8
LAYER1
  2
Group46
 70
     0
 10
0
 20
0
 30
0
  0
LINE
  8
LAYER1
  6
CONTINUOUS
 62
     7
 10
1.8333
 20
4.8351
 30
0
 11
2.0972
 21
4.8351
 31
0
  0
LINE
  8
LAYER1
  6
CONTINUOUS
 62
     7
 10
1.8333
 20
4.8351
 30
0
 11
1.8194
 21
4.8351
 31
0
  0
ENDBLK
  8
LAYER1
  0
BLOCK
  8
LAYER1
  2
Group47
 70
     0
 10
0
 20
0
 30
0
  0
LINE
  8
LAYER1
  6
CONTINUOUS
 62
     7
 10
1.8333
 20
4.3628
 30
0
 11
1.8194
 21
4.3767
 31
0
  0
LINE
  8
LAYER1
  6
CONTINUOUS
 62
     7
 10
1.875
 20
4.9184
 30
0
 11
1.875
 21
4.8489
 31
0
  0
LINE
  8
LAYER1
  6
CONTINUOUS
 62
     7
 10
1.8611
 20
4.9323
 30
0
 11
1.8611
 21
4.8351
 31
0
  0
LINE
  8
LAYER1
  6
CONTINUOUS
 62
     7
 10
1.9028
 20
4.9184
 30
0
 11
1.9028
 21
4.8489
 31
0
  0
LINE
  8
LAYER1
  6
CONTINUOUS
 62
     7
 10
1.8889
 20
4.9323
 30
0
 11
1.8889
 21
4.8351
 31
0
  0
LINE
  8
LAYER1
  6
CONTINUOUS
 62
     7
 10
1.9306
 20
4.9184
 30
0
 11
1.9306
 21
4.8489
 31
0
  0
LINE
  8
LAYER1
  6
CONTINUOUS
 62
     7
 10
1.9167
 20
4.9323
 30
0
 11
1.9167
 21
4.8351
 31
0
  0
LINE
  8
LAYER1
  6
CONTINUOUS
 62
     7
 10
1.9722
 20
4.9184
 30
0
 11
1.9722
 21
4.8489
 31
0
  0
LINE
  8
LAYER1
  6
CONTINUOUS
 62
     7
 10
1.9444
 20
4.9323
 30
0
 11
1.9444
 21
4.8351
 31
0
  0
LINE
  8
LAYER1
  6
CONTINUOUS
 62
     7
 10
2
 20
4.9184
 30
0
 11
2
 21
4.8489
 31
0
  0
LINE
  8
LAYER1
  6
CONTINUOUS
 62
     7
 10
1.9861
 20
4.9323
 30
0
 11
1.9861
 21
4.8351
 31
0
  0
LINE
  8
LAYER1
  6
CONTINUOUS
 62
     7
 10
2.0278
 20
4.9184
 30
0
 11
2.0278
 21
4.8489
 31
0
  0
LINE
  8
LAYER1
  6
CONTINUOUS
 62
     7
 10
2.0139
 20
4.9323
 30
0
 11
2.0139
 21
4.8351
 31
0
  0
LINE
  8
LAYER1
  6
CONTINUOUS
 62
     7
 10
2.0556
 20
4.9184
 30
0
 11
2.0556
 21
4.8489
 31
0
  0
LINE
  8
LAYER1
  6
CONTINUOUS
 62
     7
 10
2.0417
 20
4.9323
 30
0
 11
2.0417
 21
4.8351
 31
0
  0
LINE
  8
LAYER1
  6
CONTINUOUS
 62
     7
 10
2.1111
 20
4.9184
 30
0
 11
2.1111
 21
4.8489
 31
0
  0
LINE
  8
LAYER1
  6
CONTINUOUS
 62
     7
 10
2.0972
 20
4.9323
 30
0
 11
2.0972
 21
4.8351
 31
0
  0
LINE
  8
LAYER1
  6
CONTINUOUS
 62
     7
 10
1.8333
 20
4.9323
 30
0
 11
1.8333
 21
4.8351
 31
0
  0
LINE
  8
LAYER1
  6
CONTINUOUS
 62
     7
 10
2.0972
 20
4.9323
 30
0
 11
2.1111
 21
4.9184
 31
0
  0
LINE
  8
LAYER1
  6
CONTINUOUS
 62
     7
 10
2.0972
 20
4.8351
 30
0
 11
2.1111
 21
4.8489
 31
0
  0
LINE
  8
LAYER1
  6
CONTINUOUS
 62
     7
 10
2.0972
 20
4.9323
 30
0
 11
1.8333
 21
4.9323
 31
0
  0
INSERT
  8
LAYER1
  2
Group46
 10
0
 20
0
 30
0
  0
ENDBLK
  8
LAYER1
  0
BLOCK
  8
LAYER1
  2
Group48
 70
     0
 10
0
 20
0
 30
0
  0
LINE
  8
LAYER1
  6
CONTINUOUS
 62
     7
 10
1.8333
 20
5.3767
 30
0
 11
2.1528
 21
5.3767
 31
0
  0
LINE
  8
LAYER1
  6
CONTINUOUS
 62
     7
 10
1.8333
 20
5.3767
 30
0
 11
1.8194
 21
5.3767
 31
0
  0
ENDBLK
  8
LAYER1
  0
BLOCK
  8
LAYER1
  2
Group49
 70
     0
 10
0
 20
0
 30
0
  0
LINE
  8
LAYER1
  6
CONTINUOUS
 62
     7
 10
1.8333
 20
4.9323
 30
0
 11
1.8194
 21
4.9323
 31
0
  0
LINE
  8
LAYER1
  6
CONTINUOUS
 62
     7
 10
1.875
 20
5.4601
 30
0
 11
1.875
 21
5.3906
 31
0
  0
LINE
  8
LAYER1
  6
CONTINUOUS
 62
     7
 10
1.8611
 20
5.4601
 30
0
 11
1.8611
 21
5.3767
 31
0
  0
LINE
  8
LAYER1
  6
CONTINUOUS
 62
     7
 10
1.9028
 20
5.4601
 30
0
 11
1.9028
 21
5.3906
 31
0
  0
LINE
  8
LAYER1
  6
CONTINUOUS
 62
     7
 10
1.8889
 20
5.4601
 30
0
 11
1.8889
 21
5.3767
 31
0
  0
LINE
  8
LAYER1
  6
CONTINUOUS
 62
     7
 10
1.9306
 20
5.4601
 30
0
 11
1.9306
 21
5.3906
 31
0
  0
LINE
  8
LAYER1
  6
CONTINUOUS
 62
     7
 10
1.9167
 20
5.4601
 30
0
 11
1.9167
 21
5.3767
 31
0
  0
LINE
  8
LAYER1
  6
CONTINUOUS
 62
     7
 10
1.9722
 20
5.4601
 30
0
 11
1.9722
 21
5.3906
 31
0
  0
LINE
  8
LAYER1
  6
CONTINUOUS
 62
     7
 10
1.9583
 20
5.4601
 30
0
 11
1.9583
 21
5.3767
 31
0
  0
LINE
  8
LAYER1
  6
CONTINUOUS
 62
     7
 10
2
 20
5.4601
 30
0
 11
2
 21
5.3906
 31
0
  0
LINE
  8
LAYER1
  6
CONTINUOUS
 62
     7
 10
1.9861
 20
5.4601
 30
0
 11
1.9861
 21
5.3767
 31
0
  0
LINE
  8
LAYER1
  6
CONTINUOUS
 62
     7
 10
2.0278
 20
5.4601
 30
0
 11
2.0278
 21
5.3906
 31
0
  0
LINE
  8
LAYER1
  6
CONTINUOUS
 62
     7
 10
2.0139
 20
5.4601
 30
0
 11
2.0139
 21
5.3767
 31
0
  0
LINE
  8
LAYER1
  6
CONTINUOUS
 62
     7
 10
2.0556
 20
5.4601
 30
0
 11
2.0556
 21
5.3906
 31
0
  0
LINE
  8
LAYER1
  6
CONTINUOUS
 62
     7
 10
2.0417
 20
5.4601
 30
0
 11
2.0417
 21
5.3767
 31
0
  0
LINE
  8
LAYER1
  6
CONTINUOUS
 62
     7
 10
2.0972
 20
5.4601
 30
0
 11
2.0972
 21
5.3906
 31
0
  0
LINE
  8
LAYER1
  6
CONTINUOUS
 62
     7
 10
2.0833
 20
5.4601
 30
0
 11
2.0833
 21
5.3767
 31
0
  0
LINE
  8
LAYER1
  6
CONTINUOUS
 62
     7
 10
2.125
 20
5.4601
 30
0
 11
2.125
 21
5.3906
 31
0
  0
LINE
  8
LAYER1
  6
CONTINUOUS
 62
     7
 10
2.1111
 20
5.4601
 30
0
 11
2.1111
 21
5.3767
 31
0
  0
LINE
  8
LAYER1
  6
CONTINUOUS
 62
     7
 10
2.1667
 20
5.4601
 30
0
 11
2.1667
 21
5.3906
 31
0
  0
LINE
  8
LAYER1
  6
CONTINUOUS
 62
     7
 10
2.1528
 20
5.4601
 30
0
 11
2.1528
 21
5.3767
 31
0
  0
LINE
  8
LAYER1
  6
CONTINUOUS
 62
     7
 10
1.8333
 20
5.4601
 30
0
 11
1.8333
 21
5.3767
 31
0
  0
LINE
  8
LAYER1
  6
CONTINUOUS
 62
     7
 10
2.1528
 20
5.4601
 30
0
 11
2.1667
 21
5.4601
 31
0
  0
LINE
  8
LAYER1
  6
CONTINUOUS
 62
     7
 10
2.1528
 20
5.3767
 30
0
 11
2.1667
 21
5.3906
 31
0
  0
LINE
  8
LAYER1
  6
CONTINUOUS
 62
     7
 10
2.1528
 20
5.4601
 30
0
 11
1.8333
 21
5.4601
 31
0
  0
INSERT
  8
LAYER1
  2
Group48
 10
0
 20
0
 30
0
  0
ENDBLK
  8
LAYER1
  0
BLOCK
  8
LAYER1
  2
Group50
 70
     0
 10
0
 20
0
 30
0
  0
LINE
  8
LAYER1
  6
CONTINUOUS
 62
     7
 10
1.8333
 20
5.9184
 30
0
 11
2.2222
 21
5.9184
 31
0
  0
LINE
  8
LAYER1
  6
CONTINUOUS
 62
     7
 10
1.8333
 20
5.9184
 30
0
 11
1.8194
 21
5.9184
 31
0
  0
ENDBLK
  8
LAYER1
  0
BLOCK
  8
LAYER1
  2
Group51
 70
     0
 10
0
 20
0
 30
0
  0
LINE
  8
LAYER1
  6
CONTINUOUS
 62
     7
 10
1.8333
 20
5.4601
 30
0
 11
1.8194
 21
5.4739
 31
0
  0
LINE
  8
LAYER1
  6
CONTINUOUS
 62
     7
 10
1.9306
 20
5.9878
 30
0
 11
1.9306
 21
5.9323
 31
0
  0
LINE
  8
LAYER1
  6
CONTINUOUS
 62
     7
 10
1.9167
 20
6.0017
 30
0
 11
1.9167
 21
5.9184
 31
0
  0
LINE
  8
LAYER1
  6
CONTINUOUS
 62
     7
 10
1.9722
 20
5.9878
 30
0
 11
1.9722
 21
5.9323
 31
0
  0
LINE
  8
LAYER1
  6
CONTINUOUS
 62
     7
 10
1.9583
 20
6.0017
 30
0
 11
1.9583
 21
5.9184
 31
0
  0
LINE
  8
LAYER1
  6
CONTINUOUS
 62
     7
 10
2
 20
5.9878
 30
0
 11
2
 21
5.9323
 31
0
  0
LINE
  8
LAYER1
  6
CONTINUOUS
 62
     7
 10
1.9861
 20
6.0017
 30
0
 11
1.9861
 21
5.9184
 31
0
  0
LINE
  8
LAYER1
  6
CONTINUOUS
 62
     7
 10
2.0278
 20
5.9878
 30
0
 11
2.0278
 21
5.9323
 31
0
  0
LINE
  8
LAYER1
  6
CONTINUOUS
 62
     7
 10
2.0139
 20
6.0017
 30
0
 11
2.0139
 21
5.9184
 31
0
  0
LINE
  8
LAYER1
  6
CONTINUOUS
 62
     7
 10
2.0556
 20
5.9878
 30
0
 11
2.0556
 21
5.9323
 31
0
  0
LINE
  8
LAYER1
  6
CONTINUOUS
 62
     7
 10
2.0417
 20
6.0017
 30
0
 11
2.0417
 21
5.9184
 31
0
  0
LINE
  8
LAYER1
  6
CONTINUOUS
 62
     7
 10
2.0972
 20
5.9878
 30
0
 11
2.0972
 21
5.9323
 31
0
  0
LINE
  8
LAYER1
  6
CONTINUOUS
 62
     7
 10
2.0833
 20
6.0017
 30
0
 11
2.0833
 21
5.9184
 31
0
  0
LINE
  8
LAYER1
  6
CONTINUOUS
 62
     7
 10
2.125
 20
5.9878
 30
0
 11
2.125
 21
5.9323
 31
0
  0
LINE
  8
LAYER1
  6
CONTINUOUS
 62
     7
 10
2.1111
 20
6.0017
 30
0
 11
2.1111
 21
5.9184
 31
0
  0
LINE
  8
LAYER1
  6
CONTINUOUS
 62
     7
 10
2.1528
 20
5.9878
 30
0
 11
2.1528
 21
5.9323
 31
0
  0
LINE
  8
LAYER1
  6
CONTINUOUS
 62
     7
 10
2.1389
 20
6.0017
 30
0
 11
2.1389
 21
5.9184
 31
0
  0
LINE
  8
LAYER1
  6
CONTINUOUS
 62
     7
 10
2.1806
 20
5.9878
 30
0
 11
2.1806
 21
5.9323
 31
0
  0
LINE
  8
LAYER1
  6
CONTINUOUS
 62
     7
 10
2.1667
 20
6.0017
 30
0
 11
2.1667
 21
5.9184
 31
0
  0
LINE
  8
LAYER1
  6
CONTINUOUS
 62
     7
 10
2.2361
 20
5.9878
 30
0
 11
2.2361
 21
5.9323
 31
0
  0
LINE
  8
LAYER1
  6
CONTINUOUS
 62
     7
 10
2.2222
 20
6.0017
 30
0
 11
2.2222
 21
5.9184
 31
0
  0
LINE
  8
LAYER1
  6
CONTINUOUS
 62
     7
 10
2.2222
 20
6.0017
 30
0
 11
2.2361
 21
5.9878
 31
0
  0
LINE
  8
LAYER1
  6
CONTINUOUS
 62
     7
 10
2.2222
 20
5.9184
 30
0
 11
2.2361
 21
5.9323
 31
0
  0
LINE
  8
LAYER1
  6
CONTINUOUS
 62
     7
 10
1.9028
 20
5.9878
 30
0
 11
1.9028
 21
5.9323
 31
0
  0
LINE
  8
LAYER1
  6
CONTINUOUS
 62
     7
 10
1.8889
 20
6.0017
 30
0
 11
1.8889
 21
5.9184
 31
0
  0
LINE
  8
LAYER1
  6
CONTINUOUS
 62
     7
 10
1.875
 20
5.9878
 30
0
 11
1.875
 21
5.9323
 31
0
  0
LINE
  8
LAYER1
  6
CONTINUOUS
 62
     7
 10
1.8611
 20
6.0017
 30
0
 11
1.8611
 21
5.9184
 31
0
  0
LINE
  8
LAYER1
  6
CONTINUOUS
 62
     7
 10
1.8333
 20
6.0017
 30
0
 11
1.8333
 21
5.9184
 31
0
  0
LINE
  8
LAYER1
  6
CONTINUOUS
 62
     7
 10
1.8333
 20
6.0017
 30
0
 11
2.2222
 21
6.0017
 31
0
  0
INSERT
  8
LAYER1
  2
Group50
 10
0
 20
0
 30
0
  0
ENDBLK
  8
LAYER1
  0
BLOCK
  8
LAYER1
  2
Group52
 70
     0
 10
0
 20
0
 30
0
  0
LINE
  8
LAYER1
  6
CONTINUOUS
 62
     7
 10
1.8333
 20
6.4601
 30
0
 11
2.3472
 21
6.4601
 31
0
  0
LINE
  8
LAYER1
  6
CONTINUOUS
 62
     7
 10
1.8333
 20
6.4601
 30
0
 11
1.8194
 21
6.4601
 31
0
  0
ENDBLK
  8
LAYER1
  0
BLOCK
  8
LAYER1
  2
Group53
 70
     0
 10
0
 20
0
 30
0
  0
LINE
  8
LAYER1
  6
CONTINUOUS
 62
     7
 10
1.8333
 20
6.0017
 30
0
 11
1.8194
 21
6.0156
 31
0
  0
LINE
  8
LAYER1
  6
CONTINUOUS
 62
     7
 10
2.0556
 20
6.5295
 30
0
 11
2.0556
 21
6.4739
 31
0
  0
LINE
  8
LAYER1
  6
CONTINUOUS
 62
     7
 10
2.0417
 20
6.5434
 30
0
 11
2.0417
 21
6.4601
 31
0
  0
LINE
  8
LAYER1
  6
CONTINUOUS
 62
     7
 10
2.0972
 20
6.5295
 30
0
 11
2.0972
 21
6.4739
 31
0
  0
LINE
  8
LAYER1
  6
CONTINUOUS
 62
     7
 10
2.0833
 20
6.5434
 30
0
 11
2.0833
 21
6.4601
 31
0
  0
LINE
  8
LAYER1
  6
CONTINUOUS
 62
     7
 10
2.125
 20
6.5295
 30
0
 11
2.125
 21
6.4739
 31
0
  0
LINE
  8
LAYER1
  6
CONTINUOUS
 62
     7
 10
2.1111
 20
6.5434
 30
0
 11
2.1111
 21
6.4601
 31
0
  0
LINE
  8
LAYER1
  6
CONTINUOUS
 62
     7
 10
2.1528
 20
6.5295
 30
0
 11
2.1528
 21
6.4739
 31
0
  0
LINE
  8
LAYER1
  6
CONTINUOUS
 62
     7
 10
2.1389
 20
6.5434
 30
0
 11
2.1389
 21
6.4601
 31
0
  0
LINE
  8
LAYER1
  6
CONTINUOUS
 62
     7
 10
2.1806
 20
6.5295
 30
0
 11
2.1806
 21
6.4739
 31
0
  0
LINE
  8
LAYER1
  6
CONTINUOUS
 62
     7
 10
2.1667
 20
6.5434
 30
0
 11
2.1667
 21
6.4601
 31
0
  0
LINE
  8
LAYER1
  6
CONTINUOUS
 62
     7
 10
2.2222
 20
6.5295
 30
0
 11
2.2222
 21
6.4739
 31
0
  0
LINE
  8
LAYER1
  6
CONTINUOUS
 62
     7
 10
2.2083
 20
6.5434
 30
0
 11
2.2083
 21
6.4601
 31
0
  0
LINE
  8
LAYER1
  6
CONTINUOUS
 62
     7
 10
2.25
 20
6.5295
 30
0
 11
2.25
 21
6.4739
 31
0
  0
LINE
  8
LAYER1
  6
CONTINUOUS
 62
     7
 10
2.2361
 20
6.5434
 30
0
 11
2.2361
 21
6.4601
 31
0
  0
LINE
  8
LAYER1
  6
CONTINUOUS
 62
     7
 10
2.2778
 20
6.5295
 30
0
 11
2.2778
 21
6.4739
 31
0
  0
LINE
  8
LAYER1
  6
CONTINUOUS
 62
     7
 10
2.2639
 20
6.5434
 30
0
 11
2.2639
 21
6.4601
 31
0
  0
LINE
  8
LAYER1
  6
CONTINUOUS
 62
     7
 10
2.3056
 20
6.5295
 30
0
 11
2.3056
 21
6.4739
 31
0
  0
LINE
  8
LAYER1
  6
CONTINUOUS
 62
     7
 10
2.2917
 20
6.5434
 30
0
 11
2.2917
 21
6.4601
 31
0
  0
LINE
  8
LAYER1
  6
CONTINUOUS
 62
     7
 10
2.3611
 20
6.5295
 30
0
 11
2.3611
 21
6.4739
 31
0
  0
LINE
  8
LAYER1
  6
CONTINUOUS
 62
     7
 10
2.3472
 20
6.5434
 30
0
 11
2.3472
 21
6.4601
 31
0
  0
LINE
  8
LAYER1
  6
CONTINUOUS
 62
     7
 10
2.3472
 20
6.5434
 30
0
 11
2.3611
 21
6.5295
 31
0
  0
LINE
  8
LAYER1
  6
CONTINUOUS
 62
     7
 10
2.3472
 20
6.4601
 30
0
 11
2.3611
 21
6.4739
 31
0
  0
LINE
  8
LAYER1
  6
CONTINUOUS
 62
     7
 10
2.0278
 20
6.5295
 30
0
 11
2.0278
 21
6.4739
 31
0
  0
LINE
  8
LAYER1
  6
CONTINUOUS
 62
     7
 10
2.0139
 20
6.5434
 30
0
 11
2.0139
 21
6.4601
 31
0
  0
LINE
  8
LAYER1
  6
CONTINUOUS
 62
     7
 10
2
 20
6.5295
 30
0
 11
2
 21
6.4739
 31
0
  0
LINE
  8
LAYER1
  6
CONTINUOUS
 62
     7
 10
1.9861
 20
6.5434
 30
0
 11
1.9861
 21
6.4601
 31
0
  0
LINE
  8
LAYER1
  6
CONTINUOUS
 62
     7
 10
1.9722
 20
6.5295
 30
0
 11
1.9722
 21
6.4739
 31
0
  0
LINE
  8
LAYER1
  6
CONTINUOUS
 62
     7
 10
1.9583
 20
6.5434
 30
0
 11
1.9583
 21
6.4601
 31
0
  0
LINE
  8
LAYER1
  6
CONTINUOUS
 62
     7
 10
1.9306
 20
6.5295
 30
0
 11
1.9306
 21
6.4739
 31
0
  0
LINE
  8
LAYER1
  6
CONTINUOUS
 62
     7
 10
1.9167
 20
6.5434
 30
0
 11
1.9167
 21
6.4601
 31
0
  0
LINE
  8
LAYER1
  6
CONTINUOUS
 62
     7
 10
1.9028
 20
6.5295
 30
0
 11
1.9028
 21
6.4739
 31
0
  0
LINE
  8
LAYER1
  6
CONTINUOUS
 62
     7
 10
1.8889
 20
6.5434
 30
0
 11
1.8889
 21
6.4601
 31
0
  0
LINE
  8
LAYER1
  6
CONTINUOUS
 62
     7
 10
1.875
 20
6.5295
 30
0
 11
1.875
 21
6.4739
 31
0
  0
LINE
  8
LAYER1
  6
CONTINUOUS
 62
     7
 10
1.8611
 20
6.5434
 30
0
 11
1.8611
 21
6.4601
 31
0
  0
LINE
  8
LAYER1
  6
CONTINUOUS
 62
     7
 10
1.8333
 20
6.5434
 30
0
 11
1.8333
 21
6.4601
 31
0
  0
LINE
  8
LAYER1
  6
CONTINUOUS
 62
     7
 10
1.8333
 20
6.5434
 30
0
 11
2.3472
 21
6.5434
 31
0
  0
INSERT
  8
LAYER1
  2
Group52
 10
0
 20
0
 30
0
  0
ENDBLK
  8
LAYER1
  0
BLOCK
  8
LAYER1
  2
Group54
 70
     0
 10
0
 20
0
 30
0
  0
LINE
  8
LAYER1
  6
CONTINUOUS
 62
     7
 10
2.5833
 20
4.0712
 30
0
 11
2.5833
 21
7.3628
 31
0
  0
LINE
  8
LAYER1
  6
CONTINUOUS
 62
     7
 10
2.6111
 20
4.3906
 30
0
 11
2.6111
 21
4.2656
 31
0
  0
LINE
  8
LAYER1
  6
CONTINUOUS
 62
     7
 10
2.625
 20
4.3767
 30
0
 11
2.625
 21
4.2795
 31
0
  0
LINE
  8
LAYER1
  6
CONTINUOUS
 62
     7
 10
2.6389
 20
4.3906
 30
0
 11
2.6389
 21
4.2656
 31
0
  0
LINE
  8
LAYER1
  6
CONTINUOUS
 62
     7
 10
2.6528
 20
4.3767
 30
0
 11
2.6528
 21
4.2795
 31
0
  0
LINE
  8
LAYER1
  6
CONTINUOUS
 62
     7
 10
2.6667
 20
4.3906
 30
0
 11
2.6667
 21
4.2656
 31
0
  0
LINE
  8
LAYER1
  6
CONTINUOUS
 62
     7
 10
2.6944
 20
4.3767
 30
0
 11
2.6944
 21
4.2795
 31
0
  0
LINE
  8
LAYER1
  6
CONTINUOUS
 62
     7
 10
2.7222
 20
4.3906
 30
0
 11
2.7222
 21
4.2656
 31
0
  0
LINE
  8
LAYER1
  6
CONTINUOUS
 62
     7
 10
2.7361
 20
4.3767
 30
0
 11
2.7361
 21
4.2795
 31
0
  0
LINE
  8
LAYER1
  6
CONTINUOUS
 62
     7
 10
2.5972
 20
4.3906
 30
0
 11
2.5972
 21
4.2656
 31
0
  0
LINE
  8
LAYER1
  6
CONTINUOUS
 62
     7
 10
2.5972
 20
4.3906
 30
0
 11
2.7222
 21
4.3906
 31
0
  0
LINE
  8
LAYER1
  6
CONTINUOUS
 62
     7
 10
2.5972
 20
4.2656
 30
0
 11
2.7222
 21
4.2656
 31
0
  0
LINE
  8
LAYER1
  6
CONTINUOUS
 62
     7
 10
2.7361
 20
4.3767
 30
0
 11
2.7222
 21
4.3906
 31
0
  0
LINE
  8
LAYER1
  6
CONTINUOUS
 62
     7
 10
2.7361
 20
4.2795
 30
0
 11
2.7222
 21
4.2656
 31
0
  0
LINE
  8
LAYER1
  6
CONTINUOUS
 62
     7
 10
2.5972
 20
4.2656
 30
0
 11
2.5833
 21
4.2656
 31
0
  0
ENDBLK
  8
LAYER1
  0
BLOCK
  8
LAYER1
  2
Group55
 70
     0
 10
0
 20
0
 30
0
  0
LINE
  8
LAYER1
  6
CONTINUOUS
 62
     7
 10
2.5972
 20
4.8212
 30
0
 11
2.8472
 21
4.8212
 31
0
  0
LINE
  8
LAYER1
  6
CONTINUOUS
 62
     7
 10
2.5972
 20
4.8212
 30
0
 11
2.5833
 21
4.8212
 31
0
  0
ENDBLK
  8
LAYER1
  0
BLOCK
  8
LAYER1
  2
Group56
 70
     0
 10
0
 20
0
 30
0
  0
LINE
  8
LAYER1
  6
CONTINUOUS
 62
     7
 10
2.5972
 20
4.3906
 30
0
 11
2.5833
 21
4.4045
 31
0
  0
LINE
  8
LAYER1
  6
CONTINUOUS
 62
     7
 10
2.7361
 20
4.9462
 30
0
 11
2.7361
 21
4.8212
 31
0
  0
LINE
  8
LAYER1
  6
CONTINUOUS
 62
     7
 10
2.75
 20
4.9323
 30
0
 11
2.75
 21
4.8351
 31
0
  0
LINE
  8
LAYER1
  6
CONTINUOUS
 62
     7
 10
2.7639
 20
4.9462
 30
0
 11
2.7639
 21
4.8212
 31
0
  0
LINE
  8
LAYER1
  6
CONTINUOUS
 62
     7
 10
2.7778
 20
4.9323
 30
0
 11
2.7778
 21
4.8351
 31
0
  0
LINE
  8
LAYER1
  6
CONTINUOUS
 62
     7
 10
2.7917
 20
4.9462
 30
0
 11
2.7917
 21
4.8212
 31
0
  0
LINE
  8
LAYER1
  6
CONTINUOUS
 62
     7
 10
2.8194
 20
4.9323
 30
0
 11
2.8194
 21
4.8351
 31
0
  0
LINE
  8
LAYER1
  6
CONTINUOUS
 62
     7
 10
2.8472
 20
4.9462
 30
0
 11
2.8472
 21
4.8212
 31
0
  0
LINE
  8
LAYER1
  6
CONTINUOUS
 62
     7
 10
2.8611
 20
4.9323
 30
0
 11
2.8611
 21
4.8351
 31
0
  0
LINE
  8
LAYER1
  6
CONTINUOUS
 62
     7
 10
2.8611
 20
4.9323
 30
0
 11
2.8472
 21
4.9462
 31
0
  0
LINE
  8
LAYER1
  6
CONTINUOUS
 62
     7
 10
2.8611
 20
4.8351
 30
0
 11
2.8472
 21
4.8212
 31
0
  0
LINE
  8
LAYER1
  6
CONTINUOUS
 62
     7
 10
2.7083
 20
4.9462
 30
0
 11
2.7083
 21
4.8212
 31
0
  0
LINE
  8
LAYER1
  6
CONTINUOUS
 62
     7
 10
2.7222
 20
4.9323
 30
0
 11
2.7222
 21
4.8351
 31
0
  0
LINE
  8
LAYER1
  6
CONTINUOUS
 62
     7
 10
2.6667
 20
4.9462
 30
0
 11
2.6667
 21
4.8212
 31
0
  0
LINE
  8
LAYER1
  6
CONTINUOUS
 62
     7
 10
2.6944
 20
4.9323
 30
0
 11
2.6944
 21
4.8351
 31
0
  0
LINE
  8
LAYER1
  6
CONTINUOUS
 62
     7
 10
2.6389
 20
4.9462
 30
0
 11
2.6389
 21
4.8212
 31
0
  0
LINE
  8
LAYER1
  6
CONTINUOUS
 62
     7
 10
2.6528
 20
4.9323
 30
0
 11
2.6528
 21
4.8351
 31
0
  0
LINE
  8
LAYER1
  6
CONTINUOUS
 62
     7
 10
2.6111
 20
4.9462
 30
0
 11
2.6111
 21
4.8212
 31
0
  0
LINE
  8
LAYER1
  6
CONTINUOUS
 62
     7
 10
2.625
 20
4.9323
 30
0
 11
2.625
 21
4.8351
 31
0
  0
LINE
  8
LAYER1
  6
CONTINUOUS
 62
     7
 10
2.5972
 20
4.9462
 30
0
 11
2.5972
 21
4.8212
 31
0
  0
LINE
  8
LAYER1
  6
CONTINUOUS
 62
     7
 10
2.5972
 20
4.9462
 30
0
 11
2.8472
 21
4.9462
 31
0
  0
INSERT
  8
LAYER1
  2
Group55
 10
0
 20
0
 30
0
  0
ENDBLK
  8
LAYER1
  0
BLOCK
  8
LAYER1
  2
Group57
 70
     0
 10
0
 20
0
 30
0
  0
LINE
  8
LAYER1
  6
CONTINUOUS
 62
     7
 10
2.5972
 20
4.9462
 30
0
 11
2.5833
 21
4.9462
 31
0
  0
LINE
  8
LAYER1
  6
CONTINUOUS
 62
     7
 10
2.7917
 20
5.4878
 30
0
 11
2.7917
 21
5.3628
 31
0
  0
LINE
  8
LAYER1
  6
CONTINUOUS
 62
     7
 10
2.8194
 20
5.4739
 30
0
 11
2.8194
 21
5.3767
 31
0
  0
LINE
  8
LAYER1
  6
CONTINUOUS
 62
     7
 10
2.8333
 20
5.4878
 30
0
 11
2.8333
 21
5.3628
 31
0
  0
LINE
  8
LAYER1
  6
CONTINUOUS
 62
     7
 10
2.8472
 20
5.4739
 30
0
 11
2.8472
 21
5.3767
 31
0
  0
LINE
  8
LAYER1
  6
CONTINUOUS
 62
     7
 10
2.8611
 20
5.4878
 30
0
 11
2.8611
 21
5.3628
 31
0
  0
LINE
  8
LAYER1
  6
CONTINUOUS
 62
     7
 10
2.875
 20
5.4739
 30
0
 11
2.875
 21
5.3767
 31
0
  0
LINE
  8
LAYER1
  6
CONTINUOUS
 62
     7
 10
2.9028
 20
5.4878
 30
0
 11
2.9028
 21
5.3628
 31
0
  0
LINE
  8
LAYER1
  6
CONTINUOUS
 62
     7
 10
2.9167
 20
5.4739
 30
0
 11
2.9167
 21
5.3767
 31
0
  0
LINE
  8
LAYER1
  6
CONTINUOUS
 62
     7
 10
2.9167
 20
5.4739
 30
0
 11
2.9028
 21
5.4878
 31
0
  0
LINE
  8
LAYER1
  6
CONTINUOUS
 62
     7
 10
2.9167
 20
5.3767
 30
0
 11
2.9028
 21
5.3628
 31
0
  0
LINE
  8
LAYER1
  6
CONTINUOUS
 62
     7
 10
2.7639
 20
5.4878
 30
0
 11
2.7639
 21
5.3628
 31
0
  0
LINE
  8
LAYER1
  6
CONTINUOUS
 62
     7
 10
2.7778
 20
5.4739
 30
0
 11
2.7778
 21
5.3767
 31
0
  0
LINE
  8
LAYER1
  6
CONTINUOUS
 62
     7
 10
2.7361
 20
5.4878
 30
0
 11
2.7361
 21
5.3628
 31
0
  0
LINE
  8
LAYER1
  6
CONTINUOUS
 62
     7
 10
2.75
 20
5.4739
 30
0
 11
2.75
 21
5.3767
 31
0
  0
LINE
  8
LAYER1
  6
CONTINUOUS
 62
     7
 10
2.7083
 20
5.4878
 30
0
 11
2.7083
 21
5.3628
 31
0
  0
LINE
  8
LAYER1
  6
CONTINUOUS
 62
     7
 10
2.7222
 20
5.4739
 30
0
 11
2.7222
 21
5.3767
 31
0
  0
LINE
  8
LAYER1
  6
CONTINUOUS
 62
     7
 10
2.6667
 20
5.4878
 30
0
 11
2.6667
 21
5.3628
 31
0
  0
LINE
  8
LAYER1
  6
CONTINUOUS
 62
     7
 10
2.6944
 20
5.4739
 30
0
 11
2.6944
 21
5.3767
 31
0
  0
LINE
  8
LAYER1
  6
CONTINUOUS
 62
     7
 10
2.6389
 20
5.4878
 30
0
 11
2.6389
 21
5.3628
 31
0
  0
LINE
  8
LAYER1
  6
CONTINUOUS
 62
     7
 10
2.6528
 20
5.4739
 30
0
 11
2.6528
 21
5.3767
 31
0
  0
LINE
  8
LAYER1
  6
CONTINUOUS
 62
     7
 10
2.6111
 20
5.4878
 30
0
 11
2.6111
 21
5.3628
 31
0
  0
LINE
  8
LAYER1
  6
CONTINUOUS
 62
     7
 10
2.625
 20
5.4739
 30
0
 11
2.625
 21
5.3767
 31
0
  0
LINE
  8
LAYER1
  6
CONTINUOUS
 62
     7
 10
2.5972
 20
5.4878
 30
0
 11
2.5972
 21
5.3628
 31
0
  0
LINE
  8
LAYER1
  6
CONTINUOUS
 62
     7
 10
2.5972
 20
5.4878
 30
0
 11
2.9028
 21
5.4878
 31
0
  0
LINE
  8
LAYER1
  6
CONTINUOUS
 62
     7
 10
2.5972
 20
5.3628
 30
0
 11
2.9028
 21
5.3628
 31
0
  0
LINE
  8
LAYER1
  6
CONTINUOUS
 62
     7
 10
2.5972
 20
5.3628
 30
0
 11
2.5833
 21
5.3489
 31
0
  0
ENDBLK
  8
LAYER1
  0
BLOCK
  8
LAYER1
  2
Group58
 70
     0
 10
0
 20
0
 30
0
  0
LINE
  8
LAYER1
  6
CONTINUOUS
 62
     7
 10
2.5972
 20
5.9045
 30
0
 11
2.9722
 21
5.9045
 31
0
  0
LINE
  8
LAYER1
  6
CONTINUOUS
 62
     7
 10
2.5972
 20
5.9045
 30
0
 11
2.5833
 21
5.8906
 31
0
  0
ENDBLK
  8
LAYER1
  0
BLOCK
  8
LAYER1
  2
Group59
 70
     0
 10
0
 20
0
 30
0
  0
LINE
  8
LAYER1
  6
CONTINUOUS
 62
     7
 10
2.5972
 20
5.4878
 30
0
 11
2.5833
 21
5.4878
 31
0
  0
LINE
  8
LAYER1
  6
CONTINUOUS
 62
     7
 10
2.8611
 20
6.0295
 30
0
 11
2.8611
 21
5.9045
 31
0
  0
LINE
  8
LAYER1
  6
CONTINUOUS
 62
     7
 10
2.875
 20
6.0156
 30
0
 11
2.875
 21
5.9184
 31
0
  0
LINE
  8
LAYER1
  6
CONTINUOUS
 62
     7
 10
2.8889
 20
6.0295
 30
0
 11
2.8889
 21
5.9045
 31
0
  0
LINE
  8
LAYER1
  6
CONTINUOUS
 62
     7
 10
2.9028
 20
6.0156
 30
0
 11
2.9028
 21
5.9184
 31
0
  0
LINE
  8
LAYER1
  6
CONTINUOUS
 62
     7
 10
2.9167
 20
6.0295
 30
0
 11
2.9167
 21
5.9045
 31
0
  0
LINE
  8
LAYER1
  6
CONTINUOUS
 62
     7
 10
2.9444
 20
6.0156
 30
0
 11
2.9444
 21
5.9184
 31
0
  0
LINE
  8
LAYER1
  6
CONTINUOUS
 62
     7
 10
2.9722
 20
6.0295
 30
0
 11
2.9722
 21
5.9045
 31
0
  0
LINE
  8
LAYER1
  6
CONTINUOUS
 62
     7
 10
2.9861
 20
6.0156
 30
0
 11
2.9861
 21
5.9184
 31
0
  0
LINE
  8
LAYER1
  6
CONTINUOUS
 62
     7
 10
2.9861
 20
6.0156
 30
0
 11
2.9722
 21
6.0295
 31
0
  0
LINE
  8
LAYER1
  6
CONTINUOUS
 62
     7
 10
2.9861
 20
5.9184
 30
0
 11
2.9722
 21
5.9045
 31
0
  0
LINE
  8
LAYER1
  6
CONTINUOUS
 62
     7
 10
2.8333
 20
6.0295
 30
0
 11
2.8333
 21
5.9045
 31
0
  0
LINE
  8
LAYER1
  6
CONTINUOUS
 62
     7
 10
2.8472
 20
6.0156
 30
0
 11
2.8472
 21
5.9184
 31
0
  0
LINE
  8
LAYER1
  6
CONTINUOUS
 62
     7
 10
2.7917
 20
6.0295
 30
0
 11
2.7917
 21
5.9045
 31
0
  0
LINE
  8
LAYER1
  6
CONTINUOUS
 62
     7
 10
2.8194
 20
6.0156
 30
0
 11
2.8194
 21
5.9184
 31
0
  0
LINE
  8
LAYER1
  6
CONTINUOUS
 62
     7
 10
2.7639
 20
6.0295
 30
0
 11
2.7639
 21
5.9045
 31
0
  0
LINE
  8
LAYER1
  6
CONTINUOUS
 62
     7
 10
2.7778
 20
6.0156
 30
0
 11
2.7778
 21
5.9184
 31
0
  0
LINE
  8
LAYER1
  6
CONTINUOUS
 62
     7
 10
2.7361
 20
6.0295
 30
0
 11
2.7361
 21
5.9045
 31
0
  0
LINE
  8
LAYER1
  6
CONTINUOUS
 62
     7
 10
2.75
 20
6.0156
 30
0
 11
2.75
 21
5.9184
 31
0
  0
LINE
  8
LAYER1
  6
CONTINUOUS
 62
     7
 10
2.7083
 20
6.0295
 30
0
 11
2.7083
 21
5.9045
 31
0
  0
LINE
  8
LAYER1
  6
CONTINUOUS
 62
     7
 10
2.7222
 20
6.0156
 30
0
 11
2.7222
 21
5.9184
 31
0
  0
LINE
  8
LAYER1
  6
CONTINUOUS
 62
     7
 10
2.6667
 20
6.0295
 30
0
 11
2.6667
 21
5.9045
 31
0
  0
LINE
  8
LAYER1
  6
CONTINUOUS
 62
     7
 10
2.6944
 20
6.0156
 30
0
 11
2.6944
 21
5.9184
 31
0
  0
LINE
  8
LAYER1
  6
CONTINUOUS
 62
     7
 10
2.6389
 20
6.0295
 30
0
 11
2.6389
 21
5.9045
 31
0
  0
LINE
  8
LAYER1
  6
CONTINUOUS
 62
     7
 10
2.6528
 20
6.0156
 30
0
 11
2.6528
 21
5.9184
 31
0
  0
LINE
  8
LAYER1
  6
CONTINUOUS
 62
     7
 10
2.6111
 20
6.0295
 30
0
 11
2.6111
 21
5.9045
 31
0
  0
LINE
  8
LAYER1
  6
CONTINUOUS
 62
     7
 10
2.625
 20
6.0156
 30
0
 11
2.625
 21
5.9184
 31
0
  0
LINE
  8
LAYER1
  6
CONTINUOUS
 62
     7
 10
2.5972
 20
6.0295
 30
0
 11
2.5972
 21
5.9045
 31
0
  0
LINE
  8
LAYER1
  6
CONTINUOUS
 62
     7
 10
2.5972
 20
6.0295
 30
0
 11
2.9722
 21
6.0295
 31
0
  0
INSERT
  8
LAYER1
  2
Group58
 10
0
 20
0
 30
0
  0
ENDBLK
  8
LAYER1
  0
BLOCK
  8
LAYER1
  2
Group60
 70
     0
 10
0
 20
0
 30
0
  0
LINE
  8
LAYER1
  6
CONTINUOUS
 62
     7
 10
2.5972
 20
6.4462
 30
0
 11
3.0972
 21
6.4462
 31
0
  0
LINE
  8
LAYER1
  6
CONTINUOUS
 62
     7
 10
2.5972
 20
6.4462
 30
0
 11
2.5833
 21
6.4323
 31
0
  0
ENDBLK
  8
LAYER1
  0
BLOCK
  8
LAYER1
  2
Group61
 70
     0
 10
0
 20
0
 30
0
  0
LINE
  8
LAYER1
  6
CONTINUOUS
 62
     7
 10
2.5972
 20
6.0295
 30
0
 11
2.5833
 21
6.0295
 31
0
  0
LINE
  8
LAYER1
  6
CONTINUOUS
 62
     7
 10
2.9861
 20
6.5712
 30
0
 11
2.9861
 21
6.4462
 31
0
  0
LINE
  8
LAYER1
  6
CONTINUOUS
 62
     7
 10
3
 20
6.5573
 30
0
 11
3
 21
6.4601
 31
0
  0
LINE
  8
LAYER1
  6
CONTINUOUS
 62
     7
 10
3.0139
 20
6.5712
 30
0
 11
3.0139
 21
6.4462
 31
0
  0
LINE
  8
LAYER1
  6
CONTINUOUS
 62
     7
 10
3.0278
 20
6.5573
 30
0
 11
3.0278
 21
6.4601
 31
0
  0
LINE
  8
LAYER1
  6
CONTINUOUS
 62
     7
 10
3.0417
 20
6.5712
 30
0
 11
3.0417
 21
6.4462
 31
0
  0
LINE
  8
LAYER1
  6
CONTINUOUS
 62
     7
 10
3.0694
 20
6.5573
 30
0
 11
3.0694
 21
6.4601
 31
0
  0
LINE
  8
LAYER1
  6
CONTINUOUS
 62
     7
 10
3.0972
 20
6.5712
 30
0
 11
3.0972
 21
6.4462
 31
0
  0
LINE
  8
LAYER1
  6
CONTINUOUS
 62
     7
 10
3.1111
 20
6.5573
 30
0
 11
3.1111
 21
6.4601
 31
0
  0
LINE
  8
LAYER1
  6
CONTINUOUS
 62
     7
 10
3.1111
 20
6.5573
 30
0
 11
3.0972
 21
6.5712
 31
0
  0
LINE
  8
LAYER1
  6
CONTINUOUS
 62
     7
 10
3.1111
 20
6.4601
 30
0
 11
3.0972
 21
6.4462
 31
0
  0
LINE
  8
LAYER1
  6
CONTINUOUS
 62
     7
 10
2.9583
 20
6.5712
 30
0
 11
2.9583
 21
6.4462
 31
0
  0
LINE
  8
LAYER1
  6
CONTINUOUS
 62
     7
 10
2.9722
 20
6.5573
 30
0
 11
2.9722
 21
6.4601
 31
0
  0
LINE
  8
LAYER1
  6
CONTINUOUS
 62
     7
 10
2.9167
 20
6.5712
 30
0
 11
2.9167
 21
6.4462
 31
0
  0
LINE
  8
LAYER1
  6
CONTINUOUS
 62
     7
 10
2.9444
 20
6.5573
 30
0
 11
2.9444
 21
6.4601
 31
0
  0
LINE
  8
LAYER1
  6
CONTINUOUS
 62
     7
 10
2.8889
 20
6.5712
 30
0
 11
2.8889
 21
6.4462
 31
0
  0
LINE
  8
LAYER1
  6
CONTINUOUS
 62
     7
 10
2.9028
 20
6.5573
 30
0
 11
2.9028
 21
6.4601
 31
0
  0
LINE
  8
LAYER1
  6
CONTINUOUS
 62
     7
 10
2.8611
 20
6.5712
 30
0
 11
2.8611
 21
6.4462
 31
0
  0
LINE
  8
LAYER1
  6
CONTINUOUS
 62
     7
 10
2.875
 20
6.5573
 30
0
 11
2.875
 21
6.4601
 31
0
  0
LINE
  8
LAYER1
  6
CONTINUOUS
 62
     7
 10
2.8333
 20
6.5712
 30
0
 11
2.8333
 21
6.4462
 31
0
  0
LINE
  8
LAYER1
  6
CONTINUOUS
 62
     7
 10
2.8472
 20
6.5573
 30
0
 11
2.8472
 21
6.4601
 31
0
  0
LINE
  8
LAYER1
  6
CONTINUOUS
 62
     7
 10
2.7917
 20
6.5712
 30
0
 11
2.7917
 21
6.4462
 31
0
  0
LINE
  8
LAYER1
  6
CONTINUOUS
 62
     7
 10
2.8194
 20
6.5573
 30
0
 11
2.8194
 21
6.4601
 31
0
  0
LINE
  8
LAYER1
  6
CONTINUOUS
 62
     7
 10
2.7639
 20
6.5712
 30
0
 11
2.7639
 21
6.4462
 31
0
  0
LINE
  8
LAYER1
  6
CONTINUOUS
 62
     7
 10
2.7778
 20
6.5573
 30
0
 11
2.7778
 21
6.4601
 31
0
  0
LINE
  8
LAYER1
  6
CONTINUOUS
 62
     7
 10
2.7361
 20
6.5712
 30
0
 11
2.7361
 21
6.4462
 31
0
  0
LINE
  8
LAYER1
  6
CONTINUOUS
 62
     7
 10
2.75
 20
6.5573
 30
0
 11
2.75
 21
6.4601
 31
0
  0
LINE
  8
LAYER1
  6
CONTINUOUS
 62
     7
 10
2.7083
 20
6.5712
 30
0
 11
2.7083
 21
6.4462
 31
0
  0
LINE
  8
LAYER1
  6
CONTINUOUS
 62
     7
 10
2.7222
 20
6.5573
 30
0
 11
2.7222
 21
6.4601
 31
0
  0
LINE
  8
LAYER1
  6
CONTINUOUS
 62
     7
 10
2.6667
 20
6.5712
 30
0
 11
2.6667
 21
6.4462
 31
0
  0
LINE
  8
LAYER1
  6
CONTINUOUS
 62
     7
 10
2.6806
 20
6.5573
 30
0
 11
2.6806
 21
6.4601
 31
0
  0
LINE
  8
LAYER1
  6
CONTINUOUS
 62
     7
 10
2.6389
 20
6.5712
 30
0
 11
2.6389
 21
6.4462
 31
0
  0
LINE
  8
LAYER1
  6
CONTINUOUS
 62
     7
 10
2.6528
 20
6.5573
 30
0
 11
2.6528
 21
6.4601
 31
0
  0
LINE
  8
LAYER1
  6
CONTINUOUS
 62
     7
 10
2.6111
 20
6.5712
 30
0
 11
2.6111
 21
6.4462
 31
0
  0
LINE
  8
LAYER1
  6
CONTINUOUS
 62
     7
 10
2.625
 20
6.5573
 30
0
 11
2.625
 21
6.4601
 31
0
  0
LINE
  8
LAYER1
  6
CONTINUOUS
 62
     7
 10
2.5972
 20
6.5712
 30
0
 11
2.5972
 21
6.4462
 31
0
  0
LINE
  8
LAYER1
  6
CONTINUOUS
 62
     7
 10
2.5972
 20
6.5712
 30
0
 11
3.0972
 21
6.5712
 31
0
  0
INSERT
  8
LAYER1
  2
Group60
 10
0
 20
0
 30
0
  0
ENDBLK
  8
LAYER1
  0
BLOCK
  8
LAYER1
  2
Group62
 70
     0
 10
0
 20
0
 30
0
  0
LINE
  8
LAYER1
  6
CONTINUOUS
 62
     7
 10
2.5972
 20
6.9878
 30
0
 11
3.3333
 21
6.9878
 31
0
  0
LINE
  8
LAYER1
  6
CONTINUOUS
 62
     7
 10
2.5972
 20
6.9878
 30
0
 11
2.5833
 21
6.9739
 31
0
  0
ENDBLK
  8
LAYER1
  0
BLOCK
  8
LAYER1
  2
Group63
 70
     0
 10
0
 20
0
 30
0
  0
LINE
  8
LAYER1
  6
CONTINUOUS
 62
     7
 10
2.5972
 20
6.5712
 30
0
 11
2.5833
 21
6.5712
 31
0
  0
LINE
  8
LAYER1
  6
CONTINUOUS
 62
     7
 10
3.2222
 20
7.1128
 30
0
 11
3.2222
 21
6.9878
 31
0
  0
LINE
  8
LAYER1
  6
CONTINUOUS
 62
     7
 10
3.2361
 20
7.0851
 30
0
 11
3.2361
 21
7.0017
 31
0
  0
LINE
  8
LAYER1
  6
CONTINUOUS
 62
     7
 10
3.25
 20
7.1128
 30
0
 11
3.25
 21
6.9878
 31
0
  0
LINE
  8
LAYER1
  6
CONTINUOUS
 62
     7
 10
3.2639
 20
7.0851
 30
0
 11
3.2639
 21
7.0017
 31
0
  0
LINE
  8
LAYER1
  6
CONTINUOUS
 62
     7
 10
3.2778
 20
7.1128
 30
0
 11
3.2778
 21
6.9878
 31
0
  0
LINE
  8
LAYER1
  6
CONTINUOUS
 62
     7
 10
3.2917
 20
7.0851
 30
0
 11
3.2917
 21
7.0017
 31
0
  0
LINE
  8
LAYER1
  6
CONTINUOUS
 62
     7
 10
3.3333
 20
7.1128
 30
0
 11
3.3333
 21
6.9878
 31
0
  0
LINE
  8
LAYER1
  6
CONTINUOUS
 62
     7
 10
3.3472
 20
7.0851
 30
0
 11
3.3472
 21
7.0017
 31
0
  0
LINE
  8
LAYER1
  6
CONTINUOUS
 62
     7
 10
3.3472
 20
7.0851
 30
0
 11
3.3333
 21
7.1128
 31
0
  0
LINE
  8
LAYER1
  6
CONTINUOUS
 62
     7
 10
3.3472
 20
7.0017
 30
0
 11
3.3333
 21
6.9878
 31
0
  0
LINE
  8
LAYER1
  6
CONTINUOUS
 62
     7
 10
3.1944
 20
7.1128
 30
0
 11
3.1944
 21
6.9878
 31
0
  0
LINE
  8
LAYER1
  6
CONTINUOUS
 62
     7
 10
3.2083
 20
7.0851
 30
0
 11
3.2083
 21
7.0017
 31
0
  0
LINE
  8
LAYER1
  6
CONTINUOUS
 62
     7
 10
3.1528
 20
7.1128
 30
0
 11
3.1528
 21
6.9878
 31
0
  0
LINE
  8
LAYER1
  6
CONTINUOUS
 62
     7
 10
3.1667
 20
7.0851
 30
0
 11
3.1667
 21
7.0017
 31
0
  0
LINE
  8
LAYER1
  6
CONTINUOUS
 62
     7
 10
3.125
 20
7.1128
 30
0
 11
3.125
 21
6.9878
 31
0
  0
LINE
  8
LAYER1
  6
CONTINUOUS
 62
     7
 10
3.1389
 20
7.0851
 30
0
 11
3.1389
 21
7.0017
 31
0
  0
LINE
  8
LAYER1
  6
CONTINUOUS
 62
     7
 10
3.0972
 20
7.1128
 30
0
 11
3.0972
 21
6.9878
 31
0
  0
LINE
  8
LAYER1
  6
CONTINUOUS
 62
     7
 10
3.1111
 20
7.0851
 30
0
 11
3.1111
 21
7.0017
 31
0
  0
LINE
  8
LAYER1
  6
CONTINUOUS
 62
     7
 10
3.0694
 20
7.1128
 30
0
 11
3.0694
 21
6.9878
 31
0
  0
LINE
  8
LAYER1
  6
CONTINUOUS
 62
     7
 10
3.0833
 20
7.0851
 30
0
 11
3.0833
 21
7.0017
 31
0
  0
LINE
  8
LAYER1
  6
CONTINUOUS
 62
     7
 10
3.0278
 20
7.1128
 30
0
 11
3.0278
 21
6.9878
 31
0
  0
LINE
  8
LAYER1
  6
CONTINUOUS
 62
     7
 10
3.0417
 20
7.0851
 30
0
 11
3.0417
 21
7.0017
 31
0
  0
LINE
  8
LAYER1
  6
CONTINUOUS
 62
     7
 10
3
 20
7.1128
 30
0
 11
3
 21
6.9878
 31
0
  0
LINE
  8
LAYER1
  6
CONTINUOUS
 62
     7
 10
3.0139
 20
7.0851
 30
0
 11
3.0139
 21
7.0017
 31
0
  0
LINE
  8
LAYER1
  6
CONTINUOUS
 62
     7
 10
2.9722
 20
7.1128
 30
0
 11
2.9722
 21
6.9878
 31
0
  0
LINE
  8
LAYER1
  6
CONTINUOUS
 62
     7
 10
2.9861
 20
7.0851
 30
0
 11
2.9861
 21
7.0017
 31
0
  0
LINE
  8
LAYER1
  6
CONTINUOUS
 62
     7
 10
2.9444
 20
7.1128
 30
0
 11
2.9444
 21
6.9878
 31
0
  0
LINE
  8
LAYER1
  6
CONTINUOUS
 62
     7
 10
2.9583
 20
7.0851
 30
0
 11
2.9583
 21
7.0017
 31
0
  0
LINE
  8
LAYER1
  6
CONTINUOUS
 62
     7
 10
2.9028
 20
7.1128
 30
0
 11
2.9028
 21
6.9878
 31
0
  0
LINE
  8
LAYER1
  6
CONTINUOUS
 62
     7
 10
2.9167
 20
7.0851
 30
0
 11
2.9167
 21
7.0017
 31
0
  0
LINE
  8
LAYER1
  6
CONTINUOUS
 62
     7
 10
2.875
 20
7.1128
 30
0
 11
2.875
 21
6.9878
 31
0
  0
LINE
  8
LAYER1
  6
CONTINUOUS
 62
     7
 10
2.8889
 20
7.0851
 30
0
 11
2.8889
 21
7.0017
 31
0
  0
LINE
  8
LAYER1
  6
CONTINUOUS
 62
     7
 10
2.8472
 20
7.1128
 30
0
 11
2.8472
 21
6.9878
 31
0
  0
LINE
  8
LAYER1
  6
CONTINUOUS
 62
     7
 10
2.8611
 20
7.0851
 30
0
 11
2.8611
 21
7.0017
 31
0
  0
LINE
  8
LAYER1
  6
CONTINUOUS
 62
     7
 10
2.8194
 20
7.1128
 30
0
 11
2.8194
 21
6.9878
 31
0
  0
LINE
  8
LAYER1
  6
CONTINUOUS
 62
     7
 10
2.8333
 20
7.0851
 30
0
 11
2.8333
 21
7.0017
 31
0
  0
LINE
  8
LAYER1
  6
CONTINUOUS
 62
     7
 10
2.7778
 20
7.1128
 30
0
 11
2.7778
 21
6.9878
 31
0
  0
LINE
  8
LAYER1
  6
CONTINUOUS
 62
     7
 10
2.7917
 20
7.0851
 30
0
 11
2.7917
 21
7.0017
 31
0
  0
LINE
  8
LAYER1
  6
CONTINUOUS
 62
     7
 10
2.75
 20
7.1128
 30
0
 11
2.75
 21
6.9878
 31
0
  0
LINE
  8
LAYER1
  6
CONTINUOUS
 62
     7
 10
2.7639
 20
7.0851
 30
0
 11
2.7639
 21
7.0017
 31
0
  0
LINE
  8
LAYER1
  6
CONTINUOUS
 62
     7
 10
2.7222
 20
7.1128
 30
0
 11
2.7222
 21
6.9878
 31
0
  0
LINE
  8
LAYER1
  6
CONTINUOUS
 62
     7
 10
2.7361
 20
7.0851
 30
0
 11
2.7361
 21
7.0017
 31
0
  0
LINE
  8
LAYER1
  6
CONTINUOUS
 62
     7
 10
2.6944
 20
7.1128
 30
0
 11
2.6944
 21
6.9878
 31
0
  0
LINE
  8
LAYER1
  6
CONTINUOUS
 62
     7
 10
2.7083
 20
7.0851
 30
0
 11
2.7083
 21
7.0017
 31
0
  0
LINE
  8
LAYER1
  6
CONTINUOUS
 62
     7
 10
2.6528
 20
7.1128
 30
0
 11
2.6528
 21
6.9878
 31
0
  0
LINE
  8
LAYER1
  6
CONTINUOUS
 62
     7
 10
2.6667
 20
7.0851
 30
0
 11
2.6667
 21
7.0017
 31
0
  0
LINE
  8
LAYER1
  6
CONTINUOUS
 62
     7
 10
2.625
 20
7.1128
 30
0
 11
2.625
 21
6.9878
 31
0
  0
LINE
  8
LAYER1
  6
CONTINUOUS
 62
     7
 10
2.6389
 20
7.0851
 30
0
 11
2.6389
 21
7.0017
 31
0
  0
LINE
  8
LAYER1
  6
CONTINUOUS
 62
     7
 10
2.5972
 20
7.1128
 30
0
 11
2.5972
 21
6.9878
 31
0
  0
LINE
  8
LAYER1
  6
CONTINUOUS
 62
     7
 10
2.6111
 20
7.0851
 30
0
 11
2.6111
 21
7.0017
 31
0
  0
LINE
  8
LAYER1
  6
CONTINUOUS
 62
     7
 10
2.5972
 20
7.1128
 30
0
 11
3.3333
 21
7.1128
 31
0
  0
INSERT
  8
LAYER1
  2
Group62
 10
0
 20
0
 30
0
  0
ENDBLK
  8
LAYER1
  0
BLOCK
  8
LAYER1
  2
Group64
 70
     0
 10
0
 20
0
 30
0
  0
LINE
  8
LAYER1
  6
CONTINUOUS
 62
     7
 10
3.7778
 20
4.8073
 30
0
 11
3.7917
 21
4.8351
 31
0
  0
LINE
  8
LAYER1
  6
CONTINUOUS
 62
     7
 10
3.5278
 20
4.8073
 30
0
 11
3.5
 21
4.8073
 31
0
  0
ENDBLK
  8
LAYER1
  0
BLOCK
  8
LAYER1
  2
Group65
 70
     0
 10
0
 20
0
 30
0
  0
LINE
  8
LAYER1
  6
CONTINUOUS
 62
     7
 10
3.5
 20
4.3628
 30
0
 11
3.5
 21
9.4462
 31
0
  0
LINE
  8
LAYER1
  6
CONTINUOUS
 62
     7
 10
3.5417
 20
4.9462
 30
0
 11
3.5417
 21
4.8073
 31
0
  0
LINE
  8
LAYER1
  6
CONTINUOUS
 62
     7
 10
3.5556
 20
4.9323
 30
0
 11
3.5556
 21
4.8351
 31
0
  0
LINE
  8
LAYER1
  6
CONTINUOUS
 62
     7
 10
3.5694
 20
4.9462
 30
0
 11
3.5694
 21
4.8073
 31
0
  0
LINE
  8
LAYER1
  6
CONTINUOUS
 62
     7
 10
3.5833
 20
4.9323
 30
0
 11
3.5833
 21
4.8351
 31
0
  0
LINE
  8
LAYER1
  6
CONTINUOUS
 62
     7
 10
3.5972
 20
4.9462
 30
0
 11
3.5972
 21
4.8073
 31
0
  0
LINE
  8
LAYER1
  6
CONTINUOUS
 62
     7
 10
3.6111
 20
4.9323
 30
0
 11
3.6111
 21
4.8351
 31
0
  0
LINE
  8
LAYER1
  6
CONTINUOUS
 62
     7
 10
3.625
 20
4.9462
 30
0
 11
3.625
 21
4.8073
 31
0
  0
LINE
  8
LAYER1
  6
CONTINUOUS
 62
     7
 10
3.6528
 20
4.9323
 30
0
 11
3.6528
 21
4.8351
 31
0
  0
LINE
  8
LAYER1
  6
CONTINUOUS
 62
     7
 10
3.6667
 20
4.9462
 30
0
 11
3.6667
 21
4.8073
 31
0
  0
LINE
  8
LAYER1
  6
CONTINUOUS
 62
     7
 10
3.6806
 20
4.9323
 30
0
 11
3.6806
 21
4.8351
 31
0
  0
LINE
  8
LAYER1
  6
CONTINUOUS
 62
     7
 10
3.6944
 20
4.9462
 30
0
 11
3.6944
 21
4.8073
 31
0
  0
LINE
  8
LAYER1
  6
CONTINUOUS
 62
     7
 10
3.7083
 20
4.9323
 30
0
 11
3.7083
 21
4.8351
 31
0
  0
LINE
  8
LAYER1
  6
CONTINUOUS
 62
     7
 10
3.7222
 20
4.9462
 30
0
 11
3.7222
 21
4.8073
 31
0
  0
LINE
  8
LAYER1
  6
CONTINUOUS
 62
     7
 10
3.7361
 20
4.9323
 30
0
 11
3.7361
 21
4.8351
 31
0
  0
LINE
  8
LAYER1
  6
CONTINUOUS
 62
     7
 10
3.7778
 20
4.9462
 30
0
 11
3.7778
 21
4.8073
 31
0
  0
LINE
  8
LAYER1
  6
CONTINUOUS
 62
     7
 10
3.7917
 20
4.9323
 30
0
 11
3.7917
 21
4.8351
 31
0
  0
LINE
  8
LAYER1
  6
CONTINUOUS
 62
     7
 10
3.5278
 20
4.9462
 30
0
 11
3.5278
 21
4.8073
 31
0
  0
LINE
  8
LAYER1
  6
CONTINUOUS
 62
     7
 10
3.5278
 20
4.9462
 30
0
 11
3.7778
 21
4.9462
 31
0
  0
LINE
  8
LAYER1
  6
CONTINUOUS
 62
     7
 10
3.5278
 20
4.8073
 30
0
 11
3.7778
 21
4.8073
 31
0
  0
LINE
  8
LAYER1
  6
CONTINUOUS
 62
     7
 10
3.7778
 20
4.9462
 30
0
 11
3.7917
 21
4.9323
 31
0
  0
INSERT
  8
LAYER1
  2
Group64
 10
0
 20
0
 30
0
  0
ENDBLK
  8
LAYER1
  0
BLOCK
  8
LAYER1
  2
Group66
 70
     0
 10
0
 20
0
 30
0
  0
LINE
  8
LAYER1
  6
CONTINUOUS
 62
     7
 10
3.5278
 20
5.3489
 30
0
 11
3.8333
 21
5.3489
 31
0
  0
LINE
  8
LAYER1
  6
CONTINUOUS
 62
     7
 10
3.5278
 20
5.3489
 30
0
 11
3.5
 21
5.3489
 31
0
  0
ENDBLK
  8
LAYER1
  0
BLOCK
  8
LAYER1
  2
Group67
 70
     0
 10
0
 20
0
 30
0
  0
LINE
  8
LAYER1
  6
CONTINUOUS
 62
     7
 10
3.5278
 20
4.9462
 30
0
 11
3.5
 21
4.9601
 31
0
  0
LINE
  8
LAYER1
  6
CONTINUOUS
 62
     7
 10
3.5972
 20
5.4878
 30
0
 11
3.5972
 21
5.3489
 31
0
  0
LINE
  8
LAYER1
  6
CONTINUOUS
 62
     7
 10
3.6111
 20
5.4739
 30
0
 11
3.6111
 21
5.3767
 31
0
  0
LINE
  8
LAYER1
  6
CONTINUOUS
 62
     7
 10
3.625
 20
5.4878
 30
0
 11
3.625
 21
5.3489
 31
0
  0
LINE
  8
LAYER1
  6
CONTINUOUS
 62
     7
 10
3.6528
 20
5.4739
 30
0
 11
3.6528
 21
5.3767
 31
0
  0
LINE
  8
LAYER1
  6
CONTINUOUS
 62
     7
 10
3.6667
 20
5.4878
 30
0
 11
3.6667
 21
5.3489
 31
0
  0
LINE
  8
LAYER1
  6
CONTINUOUS
 62
     7
 10
3.6806
 20
5.4739
 30
0
 11
3.6806
 21
5.3767
 31
0
  0
LINE
  8
LAYER1
  6
CONTINUOUS
 62
     7
 10
3.6944
 20
5.4878
 30
0
 11
3.6944
 21
5.3489
 31
0
  0
LINE
  8
LAYER1
  6
CONTINUOUS
 62
     7
 10
3.7083
 20
5.4739
 30
0
 11
3.7083
 21
5.3767
 31
0
  0
LINE
  8
LAYER1
  6
CONTINUOUS
 62
     7
 10
3.7222
 20
5.4878
 30
0
 11
3.7222
 21
5.3489
 31
0
  0
LINE
  8
LAYER1
  6
CONTINUOUS
 62
     7
 10
3.7361
 20
5.4739
 30
0
 11
3.7361
 21
5.3767
 31
0
  0
LINE
  8
LAYER1
  6
CONTINUOUS
 62
     7
 10
3.75
 20
5.4878
 30
0
 11
3.75
 21
5.3489
 31
0
  0
LINE
  8
LAYER1
  6
CONTINUOUS
 62
     7
 10
3.7778
 20
5.4739
 30
0
 11
3.7778
 21
5.3767
 31
0
  0
LINE
  8
LAYER1
  6
CONTINUOUS
 62
     7
 10
3.7917
 20
5.4878
 30
0
 11
3.7917
 21
5.3489
 31
0
  0
LINE
  8
LAYER1
  6
CONTINUOUS
 62
     7
 10
3.8056
 20
5.4739
 30
0
 11
3.8056
 21
5.3767
 31
0
  0
LINE
  8
LAYER1
  6
CONTINUOUS
 62
     7
 10
3.8333
 20
5.4878
 30
0
 11
3.8333
 21
5.3489
 31
0
  0
LINE
  8
LAYER1
  6
CONTINUOUS
 62
     7
 10
3.8472
 20
5.4739
 30
0
 11
3.8472
 21
5.3767
 31
0
  0
LINE
  8
LAYER1
  6
CONTINUOUS
 62
     7
 10
3.8333
 20
5.4878
 30
0
 11
3.8472
 21
5.4739
 31
0
  0
LINE
  8
LAYER1
  6
CONTINUOUS
 62
     7
 10
3.8333
 20
5.3489
 30
0
 11
3.8472
 21
5.3767
 31
0
  0
LINE
  8
LAYER1
  6
CONTINUOUS
 62
     7
 10
3.5694
 20
5.4878
 30
0
 11
3.5694
 21
5.3489
 31
0
  0
LINE
  8
LAYER1
  6
CONTINUOUS
 62
     7
 10
3.5833
 20
5.4739
 30
0
 11
3.5833
 21
5.3767
 31
0
  0
LINE
  8
LAYER1
  6
CONTINUOUS
 62
     7
 10
3.5417
 20
5.4878
 30
0
 11
3.5417
 21
5.3489
 31
0
  0
LINE
  8
LAYER1
  6
CONTINUOUS
 62
     7
 10
3.5556
 20
5.4739
 30
0
 11
3.5556
 21
5.3767
 31
0
  0
LINE
  8
LAYER1
  6
CONTINUOUS
 62
     7
 10
3.5278
 20
5.4878
 30
0
 11
3.5278
 21
5.3489
 31
0
  0
LINE
  8
LAYER1
  6
CONTINUOUS
 62
     7
 10
3.5278
 20
5.4878
 30
0
 11
3.8333
 21
5.4878
 31
0
  0
INSERT
  8
LAYER1
  2
Group66
 10
0
 20
0
 30
0
  0
ENDBLK
  8
LAYER1
  0
BLOCK
  8
LAYER1
  2
Group68
 70
     0
 10
0
 20
0
 30
0
  0
LINE
  8
LAYER1
  6
CONTINUOUS
 62
     7
 10
3.5278
 20
5.8906
 30
0
 11
3.9028
 21
5.8906
 31
0
  0
LINE
  8
LAYER1
  6
CONTINUOUS
 62
     7
 10
3.5278
 20
5.8906
 30
0
 11
3.5
 21
5.8906
 31
0
  0
ENDBLK
  8
LAYER1
  0
BLOCK
  8
LAYER1
  2
Group69
 70
     0
 10
0
 20
0
 30
0
  0
LINE
  8
LAYER1
  6
CONTINUOUS
 62
     7
 10
3.5278
 20
5.4878
 30
0
 11
3.5
 21
5.5017
 31
0
  0
LINE
  8
LAYER1
  6
CONTINUOUS
 62
     7
 10
3.6667
 20
6.0295
 30
0
 11
3.6667
 21
5.8906
 31
0
  0
LINE
  8
LAYER1
  6
CONTINUOUS
 62
     7
 10
3.6806
 20
6.0156
 30
0
 11
3.6806
 21
5.9045
 31
0
  0
LINE
  8
LAYER1
  6
CONTINUOUS
 62
     7
 10
3.6944
 20
6.0295
 30
0
 11
3.6944
 21
5.8906
 31
0
  0
LINE
  8
LAYER1
  6
CONTINUOUS
 62
     7
 10
3.7083
 20
6.0156
 30
0
 11
3.7083
 21
5.9045
 31
0
  0
LINE
  8
LAYER1
  6
CONTINUOUS
 62
     7
 10
3.7222
 20
6.0295
 30
0
 11
3.7222
 21
5.8906
 31
0
  0
LINE
  8
LAYER1
  6
CONTINUOUS
 62
     7
 10
3.7361
 20
6.0156
 30
0
 11
3.7361
 21
5.9045
 31
0
  0
LINE
  8
LAYER1
  6
CONTINUOUS
 62
     7
 10
3.75
 20
6.0295
 30
0
 11
3.75
 21
5.8906
 31
0
  0
LINE
  8
LAYER1
  6
CONTINUOUS
 62
     7
 10
3.7778
 20
6.0156
 30
0
 11
3.7778
 21
5.9045
 31
0
  0
LINE
  8
LAYER1
  6
CONTINUOUS
 62
     7
 10
3.7917
 20
6.0295
 30
0
 11
3.7917
 21
5.8906
 31
0
  0
LINE
  8
LAYER1
  6
CONTINUOUS
 62
     7
 10
3.8056
 20
6.0156
 30
0
 11
3.8056
 21
5.9045
 31
0
  0
LINE
  8
LAYER1
  6
CONTINUOUS
 62
     7
 10
3.8194
 20
6.0295
 30
0
 11
3.8194
 21
5.8906
 31
0
  0
LINE
  8
LAYER1
  6
CONTINUOUS
 62
     7
 10
3.8333
 20
6.0156
 30
0
 11
3.8333
 21
5.9045
 31
0
  0
LINE
  8
LAYER1
  6
CONTINUOUS
 62
     7
 10
3.8472
 20
6.0295
 30
0
 11
3.8472
 21
5.8906
 31
0
  0
LINE
  8
LAYER1
  6
CONTINUOUS
 62
     7
 10
3.8611
 20
6.0156
 30
0
 11
3.8611
 21
5.9045
 31
0
  0
LINE
  8
LAYER1
  6
CONTINUOUS
 62
     7
 10
3.9028
 20
6.0295
 30
0
 11
3.9028
 21
5.8906
 31
0
  0
LINE
  8
LAYER1
  6
CONTINUOUS
 62
     7
 10
3.9167
 20
6.0156
 30
0
 11
3.9167
 21
5.9045
 31
0
  0
LINE
  8
LAYER1
  6
CONTINUOUS
 62
     7
 10
3.9028
 20
6.0295
 30
0
 11
3.9167
 21
6.0156
 31
0
  0
LINE
  8
LAYER1
  6
CONTINUOUS
 62
     7
 10
3.9028
 20
5.8906
 30
0
 11
3.9167
 21
5.9045
 31
0
  0
LINE
  8
LAYER1
  6
CONTINUOUS
 62
     7
 10
3.625
 20
6.0295
 30
0
 11
3.625
 21
5.8906
 31
0
  0
LINE
  8
LAYER1
  6
CONTINUOUS
 62
     7
 10
3.6528
 20
6.0156
 30
0
 11
3.6528
 21
5.9045
 31
0
  0
LINE
  8
LAYER1
  6
CONTINUOUS
 62
     7
 10
3.5972
 20
6.0295
 30
0
 11
3.5972
 21
5.8906
 31
0
  0
LINE
  8
LAYER1
  6
CONTINUOUS
 62
     7
 10
3.6111
 20
6.0156
 30
0
 11
3.6111
 21
5.9045
 31
0
  0
LINE
  8
LAYER1
  6
CONTINUOUS
 62
     7
 10
3.5694
 20
6.0295
 30
0
 11
3.5694
 21
5.8906
 31
0
  0
LINE
  8
LAYER1
  6
CONTINUOUS
 62
     7
 10
3.5833
 20
6.0156
 30
0
 11
3.5833
 21
5.9045
 31
0
  0
LINE
  8
LAYER1
  6
CONTINUOUS
 62
     7
 10
3.5417
 20
6.0295
 30
0
 11
3.5417
 21
5.8906
 31
0
  0
LINE
  8
LAYER1
  6
CONTINUOUS
 62
     7
 10
3.5556
 20
6.0156
 30
0
 11
3.5556
 21
5.9045
 31
0
  0
LINE
  8
LAYER1
  6
CONTINUOUS
 62
     7
 10
3.5278
 20
6.0295
 30
0
 11
3.5278
 21
5.8906
 31
0
  0
LINE
  8
LAYER1
  6
CONTINUOUS
 62
     7
 10
3.5278
 20
6.0295
 30
0
 11
3.9028
 21
6.0295
 31
0
  0
INSERT
  8
LAYER1
  2
Group68
 10
0
 20
0
 30
0
  0
ENDBLK
  8
LAYER1
  0
BLOCK
  8
LAYER1
  2
Group70
 70
     0
 10
0
 20
0
 30
0
  0
LINE
  8
LAYER1
  6
CONTINUOUS
 62
     7
 10
3.5278
 20
6.4323
 30
0
 11
4.0278
 21
6.4323
 31
0
  0
LINE
  8
LAYER1
  6
CONTINUOUS
 62
     7
 10
3.5278
 20
6.4323
 30
0
 11
3.5
 21
6.4323
 31
0
  0
ENDBLK
  8
LAYER1
  0
BLOCK
  8
LAYER1
  2
Group71
 70
     0
 10
0
 20
0
 30
0
  0
LINE
  8
LAYER1
  6
CONTINUOUS
 62
     7
 10
3.5278
 20
6.0295
 30
0
 11
3.5
 21
6.0434
 31
0
  0
LINE
  8
LAYER1
  6
CONTINUOUS
 62
     7
 10
3.7917
 20
6.5712
 30
0
 11
3.7917
 21
6.4323
 31
0
  0
LINE
  8
LAYER1
  6
CONTINUOUS
 62
     7
 10
3.8056
 20
6.5573
 30
0
 11
3.8056
 21
6.4462
 31
0
  0
LINE
  8
LAYER1
  6
CONTINUOUS
 62
     7
 10
3.8194
 20
6.5712
 30
0
 11
3.8194
 21
6.4323
 31
0
  0
LINE
  8
LAYER1
  6
CONTINUOUS
 62
     7
 10
3.8333
 20
6.5573
 30
0
 11
3.8333
 21
6.4462
 31
0
  0
LINE
  8
LAYER1
  6
CONTINUOUS
 62
     7
 10
3.8472
 20
6.5712
 30
0
 11
3.8472
 21
6.4323
 31
0
  0
LINE
  8
LAYER1
  6
CONTINUOUS
 62
     7
 10
3.8611
 20
6.5573
 30
0
 11
3.8611
 21
6.4462
 31
0
  0
LINE
  8
LAYER1
  6
CONTINUOUS
 62
     7
 10
3.875
 20
6.5712
 30
0
 11
3.875
 21
6.4323
 31
0
  0
LINE
  8
LAYER1
  6
CONTINUOUS
 62
     7
 10
3.9028
 20
6.5573
 30
0
 11
3.9028
 21
6.4462
 31
0
  0
LINE
  8
LAYER1
  6
CONTINUOUS
 62
     7
 10
3.9167
 20
6.5712
 30
0
 11
3.9167
 21
6.4323
 31
0
  0
LINE
  8
LAYER1
  6
CONTINUOUS
 62
     7
 10
3.9306
 20
6.5573
 30
0
 11
3.9306
 21
6.4462
 31
0
  0
LINE
  8
LAYER1
  6
CONTINUOUS
 62
     7
 10
3.9444
 20
6.5712
 30
0
 11
3.9444
 21
6.4323
 31
0
  0
LINE
  8
LAYER1
  6
CONTINUOUS
 62
     7
 10
3.9583
 20
6.5573
 30
0
 11
3.9583
 21
6.4462
 31
0
  0
LINE
  8
LAYER1
  6
CONTINUOUS
 62
     7
 10
3.9722
 20
6.5712
 30
0
 11
3.9722
 21
6.4323
 31
0
  0
LINE
  8
LAYER1
  6
CONTINUOUS
 62
     7
 10
3.9861
 20
6.5573
 30
0
 11
3.9861
 21
6.4462
 31
0
  0
LINE
  8
LAYER1
  6
CONTINUOUS
 62
     7
 10
4.0278
 20
6.5712
 30
0
 11
4.0278
 21
6.4323
 31
0
  0
LINE
  8
LAYER1
  6
CONTINUOUS
 62
     7
 10
4.0417
 20
6.5573
 30
0
 11
4.0417
 21
6.4462
 31
0
  0
LINE
  8
LAYER1
  6
CONTINUOUS
 62
     7
 10
4.0278
 20
6.5712
 30
0
 11
4.0417
 21
6.5573
 31
0
  0
LINE
  8
LAYER1
  6
CONTINUOUS
 62
     7
 10
4.0278
 20
6.4323
 30
0
 11
4.0417
 21
6.4462
 31
0
  0
LINE
  8
LAYER1
  6
CONTINUOUS
 62
     7
 10
3.75
 20
6.5712
 30
0
 11
3.75
 21
6.4323
 31
0
  0
LINE
  8
LAYER1
  6
CONTINUOUS
 62
     7
 10
3.7778
 20
6.5573
 30
0
 11
3.7778
 21
6.4462
 31
0
  0
LINE
  8
LAYER1
  6
CONTINUOUS
 62
     7
 10
3.7222
 20
6.5712
 30
0
 11
3.7222
 21
6.4323
 31
0
  0
LINE
  8
LAYER1
  6
CONTINUOUS
 62
     7
 10
3.7361
 20
6.5573
 30
0
 11
3.7361
 21
6.4462
 31
0
  0
LINE
  8
LAYER1
  6
CONTINUOUS
 62
     7
 10
3.6944
 20
6.5712
 30
0
 11
3.6944
 21
6.4323
 31
0
  0
LINE
  8
LAYER1
  6
CONTINUOUS
 62
     7
 10
3.7083
 20
6.5573
 30
0
 11
3.7083
 21
6.4462
 31
0
  0
LINE
  8
LAYER1
  6
CONTINUOUS
 62
     7
 10
3.6667
 20
6.5712
 30
0
 11
3.6667
 21
6.4323
 31
0
  0
LINE
  8
LAYER1
  6
CONTINUOUS
 62
     7
 10
3.6806
 20
6.5573
 30
0
 11
3.6806
 21
6.4462
 31
0
  0
LINE
  8
LAYER1
  6
CONTINUOUS
 62
     7
 10
3.625
 20
6.5712
 30
0
 11
3.625
 21
6.4323
 31
0
  0
LINE
  8
LAYER1
  6
CONTINUOUS
 62
     7
 10
3.6528
 20
6.5573
 30
0
 11
3.6528
 21
6.4462
 31
0
  0
LINE
  8
LAYER1
  6
CONTINUOUS
 62
     7
 10
3.5972
 20
6.5712
 30
0
 11
3.5972
 21
6.4323
 31
0
  0
LINE
  8
LAYER1
  6
CONTINUOUS
 62
     7
 10
3.6111
 20
6.5573
 30
0
 11
3.6111
 21
6.4462
 31
0
  0
LINE
  8
LAYER1
  6
CONTINUOUS
 62
     7
 10
3.5694
 20
6.5712
 30
0
 11
3.5694
 21
6.4323
 31
0
  0
LINE
  8
LAYER1
  6
CONTINUOUS
 62
     7
 10
3.5833
 20
6.5573
 30
0
 11
3.5833
 21
6.4462
 31
0
  0
LINE
  8
LAYER1
  6
CONTINUOUS
 62
     7
 10
3.5417
 20
6.5712
 30
0
 11
3.5417
 21
6.4323
 31
0
  0
LINE
  8
LAYER1
  6
CONTINUOUS
 62
     7
 10
3.5556
 20
6.5573
 30
0
 11
3.5556
 21
6.4462
 31
0
  0
LINE
  8
LAYER1
  6
CONTINUOUS
 62
     7
 10
3.5278
 20
6.5712
 30
0
 11
3.5278
 21
6.4323
 31
0
  0
LINE
  8
LAYER1
  6
CONTINUOUS
 62
     7
 10
3.5278
 20
6.5712
 30
0
 11
4.0278
 21
6.5712
 31
0
  0
INSERT
  8
LAYER1
  2
Group70
 10
0
 20
0
 30
0
  0
ENDBLK
  8
LAYER1
  0
BLOCK
  8
LAYER1
  2
Group72
 70
     0
 10
0
 20
0
 30
0
  0
LINE
  8
LAYER1
  6
CONTINUOUS
 62
     7
 10
3.5278
 20
6.9739
 30
0
 11
4.2778
 21
6.9739
 31
0
  0
LINE
  8
LAYER1
  6
CONTINUOUS
 62
     7
 10
3.5278
 20
6.9739
 30
0
 11
3.5
 21
6.9739
 31
0
  0
ENDBLK
  8
LAYER1
  0
BLOCK
  8
LAYER1
  2
Group73
 70
     0
 10
0
 20
0
 30
0
  0
LINE
  8
LAYER1
  6
CONTINUOUS
 62
     7
 10
3.5278
 20
6.5712
 30
0
 11
3.5
 21
6.5851
 31
0
  0
LINE
  8
LAYER1
  6
CONTINUOUS
 62
     7
 10
4.0417
 20
7.1128
 30
0
 11
4.0417
 21
6.9739
 31
0
  0
LINE
  8
LAYER1
  6
CONTINUOUS
 62
     7
 10
4.0556
 20
7.0989
 30
0
 11
4.0556
 21
6.9878
 31
0
  0
LINE
  8
LAYER1
  6
CONTINUOUS
 62
     7
 10
4.0694
 20
7.1128
 30
0
 11
4.0694
 21
6.9739
 31
0
  0
LINE
  8
LAYER1
  6
CONTINUOUS
 62
     7
 10
4.0833
 20
7.0989
 30
0
 11
4.0833
 21
6.9878
 31
0
  0
LINE
  8
LAYER1
  6
CONTINUOUS
 62
     7
 10
4.0972
 20
7.1128
 30
0
 11
4.0972
 21
6.9739
 31
0
  0
LINE
  8
LAYER1
  6
CONTINUOUS
 62
     7
 10
4.1111
 20
7.0989
 30
0
 11
4.1111
 21
6.9878
 31
0
  0
LINE
  8
LAYER1
  6
CONTINUOUS
 62
     7
 10
4.125
 20
7.1128
 30
0
 11
4.125
 21
6.9739
 31
0
  0
LINE
  8
LAYER1
  6
CONTINUOUS
 62
     7
 10
4.1528
 20
7.0989
 30
0
 11
4.1528
 21
6.9878
 31
0
  0
LINE
  8
LAYER1
  6
CONTINUOUS
 62
     7
 10
4.1667
 20
7.1128
 30
0
 11
4.1667
 21
6.9739
 31
0
  0
LINE
  8
LAYER1
  6
CONTINUOUS
 62
     7
 10
4.1806
 20
7.0989
 30
0
 11
4.1806
 21
6.9878
 31
0
  0
LINE
  8
LAYER1
  6
CONTINUOUS
 62
     7
 10
4.1944
 20
7.1128
 30
0
 11
4.1944
 21
6.9739
 31
0
  0
LINE
  8
LAYER1
  6
CONTINUOUS
 62
     7
 10
4.2083
 20
7.0989
 30
0
 11
4.2083
 21
6.9878
 31
0
  0
LINE
  8
LAYER1
  6
CONTINUOUS
 62
     7
 10
4.2222
 20
7.1128
 30
0
 11
4.2222
 21
6.9739
 31
0
  0
LINE
  8
LAYER1
  6
CONTINUOUS
 62
     7
 10
4.2361
 20
7.0989
 30
0
 11
4.2361
 21
6.9878
 31
0
  0
LINE
  8
LAYER1
  6
CONTINUOUS
 62
     7
 10
4.2778
 20
7.1128
 30
0
 11
4.2778
 21
6.9739
 31
0
  0
LINE
  8
LAYER1
  6
CONTINUOUS
 62
     7
 10
4.2917
 20
7.0989
 30
0
 11
4.2917
 21
6.9878
 31
0
  0
LINE
  8
LAYER1
  6
CONTINUOUS
 62
     7
 10
4.2778
 20
7.1128
 30
0
 11
4.2917
 21
7.0989
 31
0
  0
LINE
  8
LAYER1
  6
CONTINUOUS
 62
     7
 10
4.2778
 20
6.9739
 30
0
 11
4.2917
 21
6.9878
 31
0
  0
LINE
  8
LAYER1
  6
CONTINUOUS
 62
     7
 10
4
 20
7.1128
 30
0
 11
4
 21
6.9739
 31
0
  0
LINE
  8
LAYER1
  6
CONTINUOUS
 62
     7
 10
4.0278
 20
7.0989
 30
0
 11
4.0278
 21
6.9878
 31
0
  0
LINE
  8
LAYER1
  6
CONTINUOUS
 62
     7
 10
3.9722
 20
7.1128
 30
0
 11
3.9722
 21
6.9739
 31
0
  0
LINE
  8
LAYER1
  6
CONTINUOUS
 62
     7
 10
3.9861
 20
7.0989
 30
0
 11
3.9861
 21
6.9878
 31
0
  0
LINE
  8
LAYER1
  6
CONTINUOUS
 62
     7
 10
3.9444
 20
7.1128
 30
0
 11
3.9444
 21
6.9739
 31
0
  0
LINE
  8
LAYER1
  6
CONTINUOUS
 62
     7
 10
3.9583
 20
7.0989
 30
0
 11
3.9583
 21
6.9878
 31
0
  0
LINE
  8
LAYER1
  6
CONTINUOUS
 62
     7
 10
3.9167
 20
7.1128
 30
0
 11
3.9167
 21
6.9739
 31
0
  0
LINE
  8
LAYER1
  6
CONTINUOUS
 62
     7
 10
3.9306
 20
7.0989
 30
0
 11
3.9306
 21
6.9878
 31
0
  0
LINE
  8
LAYER1
  6
CONTINUOUS
 62
     7
 10
3.875
 20
7.1128
 30
0
 11
3.875
 21
6.9739
 31
0
  0
LINE
  8
LAYER1
  6
CONTINUOUS
 62
     7
 10
3.9028
 20
7.0989
 30
0
 11
3.9028
 21
6.9878
 31
0
  0
LINE
  8
LAYER1
  6
CONTINUOUS
 62
     7
 10
3.8472
 20
7.1128
 30
0
 11
3.8472
 21
6.9739
 31
0
  0
LINE
  8
LAYER1
  6
CONTINUOUS
 62
     7
 10
3.8611
 20
7.0989
 30
0
 11
3.8611
 21
6.9878
 31
0
  0
LINE
  8
LAYER1
  6
CONTINUOUS
 62
     7
 10
3.8194
 20
7.1128
 30
0
 11
3.8194
 21
6.9739
 31
0
  0
LINE
  8
LAYER1
  6
CONTINUOUS
 62
     7
 10
3.8333
 20
7.0989
 30
0
 11
3.8333
 21
6.9878
 31
0
  0
LINE
  8
LAYER1
  6
CONTINUOUS
 62
     7
 10
3.7917
 20
7.1128
 30
0
 11
3.7917
 21
6.9739
 31
0
  0
LINE
  8
LAYER1
  6
CONTINUOUS
 62
     7
 10
3.8056
 20
7.0989
 30
0
 11
3.8056
 21
6.9878
 31
0
  0
LINE
  8
LAYER1
  6
CONTINUOUS
 62
     7
 10
3.75
 20
7.1128
 30
0
 11
3.75
 21
6.9739
 31
0
  0
LINE
  8
LAYER1
  6
CONTINUOUS
 62
     7
 10
3.7778
 20
7.0989
 30
0
 11
3.7778
 21
6.9878
 31
0
  0
LINE
  8
LAYER1
  6
CONTINUOUS
 62
     7
 10
3.7222
 20
7.1128
 30
0
 11
3.7222
 21
6.9739
 31
0
  0
LINE
  8
LAYER1
  6
CONTINUOUS
 62
     7
 10
3.7361
 20
7.0989
 30
0
 11
3.7361
 21
6.9878
 31
0
  0
LINE
  8
LAYER1
  6
CONTINUOUS
 62
     7
 10
3.6944
 20
7.1128
 30
0
 11
3.6944
 21
6.9739
 31
0
  0
LINE
  8
LAYER1
  6
CONTINUOUS
 62
     7
 10
3.7083
 20
7.0989
 30
0
 11
3.7083
 21
6.9878
 31
0
  0
LINE
  8
LAYER1
  6
CONTINUOUS
 62
     7
 10
3.6667
 20
7.1128
 30
0
 11
3.6667
 21
6.9739
 31
0
  0
LINE
  8
LAYER1
  6
CONTINUOUS
 62
     7
 10
3.6806
 20
7.0989
 30
0
 11
3.6806
 21
6.9878
 31
0
  0
LINE
  8
LAYER1
  6
CONTINUOUS
 62
     7
 10
3.625
 20
7.1128
 30
0
 11
3.625
 21
6.9739
 31
0
  0
LINE
  8
LAYER1
  6
CONTINUOUS
 62
     7
 10
3.6389
 20
7.0989
 30
0
 11
3.6389
 21
6.9878
 31
0
  0
LINE
  8
LAYER1
  6
CONTINUOUS
 62
     7
 10
3.5972
 20
7.1128
 30
0
 11
3.5972
 21
6.9739
 31
0
  0
LINE
  8
LAYER1
  6
CONTINUOUS
 62
     7
 10
3.6111
 20
7.0989
 30
0
 11
3.6111
 21
6.9878
 31
0
  0
LINE
  8
LAYER1
  6
CONTINUOUS
 62
     7
 10
3.5694
 20
7.1128
 30
0
 11
3.5694
 21
6.9739
 31
0
  0
LINE
  8
LAYER1
  6
CONTINUOUS
 62
     7
 10
3.5833
 20
7.0989
 30
0
 11
3.5833
 21
6.9878
 31
0
  0
LINE
  8
LAYER1
  6
CONTINUOUS
 62
     7
 10
3.5417
 20
7.1128
 30
0
 11
3.5417
 21
6.9739
 31
0
  0
LINE
  8
LAYER1
  6
CONTINUOUS
 62
     7
 10
3.5556
 20
7.0989
 30
0
 11
3.5556
 21
6.9878
 31
0
  0
LINE
  8
LAYER1
  6
CONTINUOUS
 62
     7
 10
3.5278
 20
7.1128
 30
0
 11
3.5278
 21
6.9739
 31
0
  0
LINE
  8
LAYER1
  6
CONTINUOUS
 62
     7
 10
3.5278
 20
7.1128
 30
0
 11
4.2778
 21
7.1128
 31
0
  0
INSERT
  8
LAYER1
  2
Group72
 10
0
 20
0
 30
0
  0
ENDBLK
  8
LAYER1
  0
BLOCK
  8
LAYER1
  2
Group74
 70
     0
 10
0
 20
0
 30
0
  0
LINE
  8
LAYER1
  6
CONTINUOUS
 62
     7
 10
3.5278
 20
7.5156
 30
0
 11
4.5278
 21
7.5156
 31
0
  0
LINE
  8
LAYER1
  6
CONTINUOUS
 62
     7
 10
3.5278
 20
7.5156
 30
0
 11
3.5
 21
7.5156
 31
0
  0
ENDBLK
  8
LAYER1
  0
BLOCK
  8
LAYER1
  2
Group75
 70
     0
 10
0
 20
0
 30
0
  0
LINE
  8
LAYER1
  6
CONTINUOUS
 62
     7
 10
3.5278
 20
7.1128
 30
0
 11
3.5
 21
7.1128
 31
0
  0
LINE
  8
LAYER1
  6
CONTINUOUS
 62
     7
 10
4.2917
 20
7.6545
 30
0
 11
4.2917
 21
7.5156
 31
0
  0
LINE
  8
LAYER1
  6
CONTINUOUS
 62
     7
 10
4.3056
 20
7.6406
 30
0
 11
4.3056
 21
7.5295
 31
0
  0
LINE
  8
LAYER1
  6
CONTINUOUS
 62
     7
 10
4.3194
 20
7.6545
 30
0
 11
4.3194
 21
7.5156
 31
0
  0
LINE
  8
LAYER1
  6
CONTINUOUS
 62
     7
 10
4.3333
 20
7.6406
 30
0
 11
4.3333
 21
7.5295
 31
0
  0
LINE
  8
LAYER1
  6
CONTINUOUS
 62
     7
 10
4.3472
 20
7.6545
 30
0
 11
4.3472
 21
7.5156
 31
0
  0
LINE
  8
LAYER1
  6
CONTINUOUS
 62
     7
 10
4.3611
 20
7.6406
 30
0
 11
4.3611
 21
7.5295
 31
0
  0
LINE
  8
LAYER1
  6
CONTINUOUS
 62
     7
 10
4.375
 20
7.6545
 30
0
 11
4.375
 21
7.5156
 31
0
  0
LINE
  8
LAYER1
  6
CONTINUOUS
 62
     7
 10
4.4028
 20
7.6406
 30
0
 11
4.4028
 21
7.5295
 31
0
  0
LINE
  8
LAYER1
  6
CONTINUOUS
 62
     7
 10
4.4167
 20
7.6545
 30
0
 11
4.4167
 21
7.5156
 31
0
  0
LINE
  8
LAYER1
  6
CONTINUOUS
 62
     7
 10
4.4306
 20
7.6406
 30
0
 11
4.4306
 21
7.5295
 31
0
  0
LINE
  8
LAYER1
  6
CONTINUOUS
 62
     7
 10
4.4444
 20
7.6545
 30
0
 11
4.4444
 21
7.5156
 31
0
  0
LINE
  8
LAYER1
  6
CONTINUOUS
 62
     7
 10
4.4583
 20
7.6406
 30
0
 11
4.4583
 21
7.5295
 31
0
  0
LINE
  8
LAYER1
  6
CONTINUOUS
 62
     7
 10
4.4722
 20
7.6545
 30
0
 11
4.4722
 21
7.5156
 31
0
  0
LINE
  8
LAYER1
  6
CONTINUOUS
 62
     7
 10
4.4861
 20
7.6406
 30
0
 11
4.4861
 21
7.5295
 31
0
  0
LINE
  8
LAYER1
  6
CONTINUOUS
 62
     7
 10
4.5278
 20
7.6545
 30
0
 11
4.5278
 21
7.5156
 31
0
  0
LINE
  8
LAYER1
  6
CONTINUOUS
 62
     7
 10
4.5417
 20
7.6406
 30
0
 11
4.5417
 21
7.5295
 31
0
  0
LINE
  8
LAYER1
  6
CONTINUOUS
 62
     7
 10
4.5278
 20
7.6545
 30
0
 11
4.5417
 21
7.6406
 31
0
  0
LINE
  8
LAYER1
  6
CONTINUOUS
 62
     7
 10
4.5278
 20
7.5156
 30
0
 11
4.5417
 21
7.5295
 31
0
  0
LINE
  8
LAYER1
  6
CONTINUOUS
 62
     7
 10
4.25
 20
7.6545
 30
0
 11
4.25
 21
7.5156
 31
0
  0
LINE
  8
LAYER1
  6
CONTINUOUS
 62
     7
 10
4.2778
 20
7.6406
 30
0
 11
4.2778
 21
7.5295
 31
0
  0
LINE
  8
LAYER1
  6
CONTINUOUS
 62
     7
 10
4.2222
 20
7.6545
 30
0
 11
4.2222
 21
7.5156
 31
0
  0
LINE
  8
LAYER1
  6
CONTINUOUS
 62
     7
 10
4.2361
 20
7.6406
 30
0
 11
4.2361
 21
7.5295
 31
0
  0
LINE
  8
LAYER1
  6
CONTINUOUS
 62
     7
 10
4.1944
 20
7.6545
 30
0
 11
4.1944
 21
7.5156
 31
0
  0
LINE
  8
LAYER1
  6
CONTINUOUS
 62
     7
 10
4.2083
 20
7.6406
 30
0
 11
4.2083
 21
7.5295
 31
0
  0
LINE
  8
LAYER1
  6
CONTINUOUS
 62
     7
 10
4.1667
 20
7.6545
 30
0
 11
4.1667
 21
7.5156
 31
0
  0
LINE
  8
LAYER1
  6
CONTINUOUS
 62
     7
 10
4.1806
 20
7.6406
 30
0
 11
4.1806
 21
7.5295
 31
0
  0
LINE
  8
LAYER1
  6
CONTINUOUS
 62
     7
 10
4.125
 20
7.6545
 30
0
 11
4.125
 21
7.5156
 31
0
  0
LINE
  8
LAYER1
  6
CONTINUOUS
 62
     7
 10
4.1528
 20
7.6406
 30
0
 11
4.1528
 21
7.5295
 31
0
  0
LINE
  8
LAYER1
  6
CONTINUOUS
 62
     7
 10
4.0972
 20
7.6545
 30
0
 11
4.0972
 21
7.5156
 31
0
  0
LINE
  8
LAYER1
  6
CONTINUOUS
 62
     7
 10
4.1111
 20
7.6406
 30
0
 11
4.1111
 21
7.5295
 31
0
  0
LINE
  8
LAYER1
  6
CONTINUOUS
 62
     7
 10
4.0694
 20
7.6545
 30
0
 11
4.0694
 21
7.5156
 31
0
  0
LINE
  8
LAYER1
  6
CONTINUOUS
 62
     7
 10
4.0833
 20
7.6406
 30
0
 11
4.0833
 21
7.5295
 31
0
  0
LINE
  8
LAYER1
  6
CONTINUOUS
 62
     7
 10
4.0417
 20
7.6545
 30
0
 11
4.0417
 21
7.5156
 31
0
  0
LINE
  8
LAYER1
  6
CONTINUOUS
 62
     7
 10
4.0556
 20
7.6406
 30
0
 11
4.0556
 21
7.5295
 31
0
  0
LINE
  8
LAYER1
  6
CONTINUOUS
 62
     7
 10
4
 20
7.6545
 30
0
 11
4
 21
7.5156
 31
0
  0
LINE
  8
LAYER1
  6
CONTINUOUS
 62
     7
 10
4.0278
 20
7.6406
 30
0
 11
4.0278
 21
7.5295
 31
0
  0
LINE
  8
LAYER1
  6
CONTINUOUS
 62
     7
 10
3.9722
 20
7.6545
 30
0
 11
3.9722
 21
7.5156
 31
0
  0
LINE
  8
LAYER1
  6
CONTINUOUS
 62
     7
 10
3.9861
 20
7.6406
 30
0
 11
3.9861
 21
7.5295
 31
0
  0
LINE
  8
LAYER1
  6
CONTINUOUS
 62
     7
 10
3.9444
 20
7.6545
 30
0
 11
3.9444
 21
7.5156
 31
0
  0
LINE
  8
LAYER1
  6
CONTINUOUS
 62
     7
 10
3.9583
 20
7.6406
 30
0
 11
3.9583
 21
7.5295
 31
0
  0
LINE
  8
LAYER1
  6
CONTINUOUS
 62
     7
 10
3.9167
 20
7.6545
 30
0
 11
3.9167
 21
7.5156
 31
0
  0
LINE
  8
LAYER1
  6
CONTINUOUS
 62
     7
 10
3.9306
 20
7.6406
 30
0
 11
3.9306
 21
7.5295
 31
0
  0
LINE
  8
LAYER1
  6
CONTINUOUS
 62
     7
 10
3.875
 20
7.6545
 30
0
 11
3.875
 21
7.5156
 31
0
  0
LINE
  8
LAYER1
  6
CONTINUOUS
 62
     7
 10
3.8889
 20
7.6406
 30
0
 11
3.8889
 21
7.5295
 31
0
  0
LINE
  8
LAYER1
  6
CONTINUOUS
 62
     7
 10
3.8472
 20
7.6545
 30
0
 11
3.8472
 21
7.5156
 31
0
  0
LINE
  8
LAYER1
  6
CONTINUOUS
 62
     7
 10
3.8611
 20
7.6406
 30
0
 11
3.8611
 21
7.5295
 31
0
  0
LINE
  8
LAYER1
  6
CONTINUOUS
 62
     7
 10
3.8194
 20
7.6545
 30
0
 11
3.8194
 21
7.5156
 31
0
  0
LINE
  8
LAYER1
  6
CONTINUOUS
 62
     7
 10
3.8333
 20
7.6406
 30
0
 11
3.8333
 21
7.5295
 31
0
  0
LINE
  8
LAYER1
  6
CONTINUOUS
 62
     7
 10
3.7917
 20
7.6545
 30
0
 11
3.7917
 21
7.5156
 31
0
  0
LINE
  8
LAYER1
  6
CONTINUOUS
 62
     7
 10
3.8056
 20
7.6406
 30
0
 11
3.8056
 21
7.5295
 31
0
  0
LINE
  8
LAYER1
  6
CONTINUOUS
 62
     7
 10
3.75
 20
7.6545
 30
0
 11
3.75
 21
7.5156
 31
0
  0
LINE
  8
LAYER1
  6
CONTINUOUS
 62
     7
 10
3.7639
 20
7.6406
 30
0
 11
3.7639
 21
7.5295
 31
0
  0
LINE
  8
LAYER1
  6
CONTINUOUS
 62
     7
 10
3.7222
 20
7.6545
 30
0
 11
3.7222
 21
7.5156
 31
0
  0
LINE
  8
LAYER1
  6
CONTINUOUS
 62
     7
 10
3.7361
 20
7.6406
 30
0
 11
3.7361
 21
7.5295
 31
0
  0
LINE
  8
LAYER1
  6
CONTINUOUS
 62
     7
 10
3.6944
 20
7.6545
 30
0
 11
3.6944
 21
7.5156
 31
0
  0
LINE
  8
LAYER1
  6
CONTINUOUS
 62
     7
 10
3.7083
 20
7.6406
 30
0
 11
3.7083
 21
7.5295
 31
0
  0
LINE
  8
LAYER1
  6
CONTINUOUS
 62
     7
 10
3.6667
 20
7.6545
 30
0
 11
3.6667
 21
7.5156
 31
0
  0
LINE
  8
LAYER1
  6
CONTINUOUS
 62
     7
 10
3.6806
 20
7.6406
 30
0
 11
3.6806
 21
7.5295
 31
0
  0
LINE
  8
LAYER1
  6
CONTINUOUS
 62
     7
 10
3.625
 20
7.6545
 30
0
 11
3.625
 21
7.5156
 31
0
  0
LINE
  8
LAYER1
  6
CONTINUOUS
 62
     7
 10
3.6389
 20
7.6406
 30
0
 11
3.6389
 21
7.5295
 31
0
  0
LINE
  8
LAYER1
  6
CONTINUOUS
 62
     7
 10
3.5972
 20
7.6545
 30
0
 11
3.5972
 21
7.5156
 31
0
  0
LINE
  8
LAYER1
  6
CONTINUOUS
 62
     7
 10
3.6111
 20
7.6406
 30
0
 11
3.6111
 21
7.5295
 31
0
  0
LINE
  8
LAYER1
  6
CONTINUOUS
 62
     7
 10
3.5694
 20
7.6545
 30
0
 11
3.5694
 21
7.5156
 31
0
  0
LINE
  8
LAYER1
  6
CONTINUOUS
 62
     7
 10
3.5833
 20
7.6406
 30
0
 11
3.5833
 21
7.5295
 31
0
  0
LINE
  8
LAYER1
  6
CONTINUOUS
 62
     7
 10
3.5417
 20
7.6545
 30
0
 11
3.5417
 21
7.5156
 31
0
  0
LINE
  8
LAYER1
  6
CONTINUOUS
 62
     7
 10
3.5556
 20
7.6406
 30
0
 11
3.5556
 21
7.5295
 31
0
  0
LINE
  8
LAYER1
  6
CONTINUOUS
 62
     7
 10
3.5278
 20
7.6545
 30
0
 11
3.5278
 21
7.5156
 31
0
  0
LINE
  8
LAYER1
  6
CONTINUOUS
 62
     7
 10
3.5278
 20
7.6545
 30
0
 11
4.5278
 21
7.6545
 31
0
  0
INSERT
  8
LAYER1
  2
Group74
 10
0
 20
0
 30
0
  0
ENDBLK
  8
LAYER1
  0
BLOCK
  8
LAYER1
  2
Group76
 70
     0
 10
0
 20
0
 30
0
  0
POLYLINE
  8
LAYER1
  6
CONTINUOUS
 62
     7
 66
     1
 70
     0
 40
0.001
 41
0.001
  0
VERTEX
  8
LAYER1
 10
4.7778
 20
8.0573
 30
0
 70
     0
  0
VERTEX
  8
LAYER1
 10
3.5278
 20
8.0573
 30
0
 70
     0
  0
VERTEX
  8
LAYER1
 10
3.5
 20
8.0434
 30
0
 70
     0
  0
SEQEND
  0
ENDBLK
  8
LAYER1
  0
BLOCK
  8
LAYER1
  2
Group77
 70
     0
 10
0
 20
0
 30
0
  0
LINE
  8
LAYER1
  6
CONTINUOUS
 62
     7
 10
3.5278
 20
7.6545
 30
0
 11
3.5
 21
7.6545
 31
0
  0
LINE
  8
LAYER1
  6
CONTINUOUS
 62
     7
 10
4.5417
 20
8.1962
 30
0
 11
4.5417
 21
8.0573
 31
0
  0
LINE
  8
LAYER1
  6
CONTINUOUS
 62
     7
 10
4.5556
 20
8.1823
 30
0
 11
4.5556
 21
8.0712
 31
0
  0
LINE
  8
LAYER1
  6
CONTINUOUS
 62
     7
 10
4.5694
 20
8.1962
 30
0
 11
4.5694
 21
8.0573
 31
0
  0
LINE
  8
LAYER1
  6
CONTINUOUS
 62
     7
 10
4.5833
 20
8.1823
 30
0
 11
4.5833
 21
8.0712
 31
0
  0
LINE
  8
LAYER1
  6
CONTINUOUS
 62
     7
 10
4.5972
 20
8.1962
 30
0
 11
4.5972
 21
8.0573
 31
0
  0
LINE
  8
LAYER1
  6
CONTINUOUS
 62
     7
 10
4.6111
 20
8.1823
 30
0
 11
4.6111
 21
8.0712
 31
0
  0
LINE
  8
LAYER1
  6
CONTINUOUS
 62
     7
 10
4.625
 20
8.1962
 30
0
 11
4.625
 21
8.0573
 31
0
  0
LINE
  8
LAYER1
  6
CONTINUOUS
 62
     7
 10
4.6528
 20
8.1823
 30
0
 11
4.6528
 21
8.0712
 31
0
  0
LINE
  8
LAYER1
  6
CONTINUOUS
 62
     7
 10
4.6667
 20
8.1962
 30
0
 11
4.6667
 21
8.0573
 31
0
  0
LINE
  8
LAYER1
  6
CONTINUOUS
 62
     7
 10
4.6806
 20
8.1823
 30
0
 11
4.6806
 21
8.0712
 31
0
  0
LINE
  8
LAYER1
  6
CONTINUOUS
 62
     7
 10
4.6944
 20
8.1962
 30
0
 11
4.6944
 21
8.0573
 31
0
  0
LINE
  8
LAYER1
  6
CONTINUOUS
 62
     7
 10
4.7083
 20
8.1823
 30
0
 11
4.7083
 21
8.0712
 31
0
  0
LINE
  8
LAYER1
  6
CONTINUOUS
 62
     7
 10
4.7222
 20
8.1962
 30
0
 11
4.7222
 21
8.0573
 31
0
  0
LINE
  8
LAYER1
  6
CONTINUOUS
 62
     7
 10
4.7361
 20
8.1823
 30
0
 11
4.7361
 21
8.0712
 31
0
  0
LINE
  8
LAYER1
  6
CONTINUOUS
 62
     7
 10
4.7778
 20
8.1962
 30
0
 11
4.7778
 21
8.0573
 31
0
  0
LINE
  8
LAYER1
  6
CONTINUOUS
 62
     7
 10
4.7917
 20
8.1823
 30
0
 11
4.7917
 21
8.0712
 31
0
  0
LINE
  8
LAYER1
  6
CONTINUOUS
 62
     7
 10
4.7778
 20
8.1962
 30
0
 11
4.7917
 21
8.1823
 31
0
  0
LINE
  8
LAYER1
  6
CONTINUOUS
 62
     7
 10
4.7778
 20
8.0573
 30
0
 11
4.7917
 21
8.0712
 31
0
  0
LINE
  8
LAYER1
  6
CONTINUOUS
 62
     7
 10
4.5
 20
8.1962
 30
0
 11
4.5
 21
8.0573
 31
0
  0
LINE
  8
LAYER1
  6
CONTINUOUS
 62
     7
 10
4.5278
 20
8.1823
 30
0
 11
4.5278
 21
8.0712
 31
0
  0
LINE
  8
LAYER1
  6
CONTINUOUS
 62
     7
 10
4.4722
 20
8.1962
 30
0
 11
4.4722
 21
8.0573
 31
0
  0
LINE
  8
LAYER1
  6
CONTINUOUS
 62
     7
 10
4.4861
 20
8.1823
 30
0
 11
4.4861
 21
8.0712
 31
0
  0
LINE
  8
LAYER1
  6
CONTINUOUS
 62
     7
 10
4.4444
 20
8.1962
 30
0
 11
4.4444
 21
8.0573
 31
0
  0
LINE
  8
LAYER1
  6
CONTINUOUS
 62
     7
 10
4.4583
 20
8.1823
 30
0
 11
4.4583
 21
8.0712
 31
0
  0
LINE
  8
LAYER1
  6
CONTINUOUS
 62
     7
 10
4.4167
 20
8.1962
 30
0
 11
4.4167
 21
8.0573
 31
0
  0
LINE
  8
LAYER1
  6
CONTINUOUS
 62
     7
 10
4.4306
 20
8.1823
 30
0
 11
4.4306
 21
8.0712
 31
0
  0
LINE
  8
LAYER1
  6
CONTINUOUS
 62
     7
 10
4.375
 20
8.1962
 30
0
 11
4.375
 21
8.0573
 31
0
  0
LINE
  8
LAYER1
  6
CONTINUOUS
 62
     7
 10
4.4028
 20
8.1823
 30
0
 11
4.4028
 21
8.0712
 31
0
  0
LINE
  8
LAYER1
  6
CONTINUOUS
 62
     7
 10
4.3472
 20
8.1962
 30
0
 11
4.3472
 21
8.0573
 31
0
  0
LINE
  8
LAYER1
  6
CONTINUOUS
 62
     7
 10
4.3611
 20
8.1823
 30
0
 11
4.3611
 21
8.0712
 31
0
  0
LINE
  8
LAYER1
  6
CONTINUOUS
 62
     7
 10
4.3194
 20
8.1962
 30
0
 11
4.3194
 21
8.0573
 31
0
  0
LINE
  8
LAYER1
  6
CONTINUOUS
 62
     7
 10
4.3333
 20
8.1823
 30
0
 11
4.3333
 21
8.0712
 31
0
  0
LINE
  8
LAYER1
  6
CONTINUOUS
 62
     7
 10
4.2917
 20
8.1962
 30
0
 11
4.2917
 21
8.0573
 31
0
  0
LINE
  8
LAYER1
  6
CONTINUOUS
 62
     7
 10
4.3056
 20
8.1823
 30
0
 11
4.3056
 21
8.0712
 31
0
  0
LINE
  8
LAYER1
  6
CONTINUOUS
 62
     7
 10
4.25
 20
8.1962
 30
0
 11
4.25
 21
8.0573
 31
0
  0
LINE
  8
LAYER1
  6
CONTINUOUS
 62
     7
 10
4.2778
 20
8.1823
 30
0
 11
4.2778
 21
8.0712
 31
0
  0
LINE
  8
LAYER1
  6
CONTINUOUS
 62
     7
 10
4.2222
 20
8.1962
 30
0
 11
4.2222
 21
8.0573
 31
0
  0
LINE
  8
LAYER1
  6
CONTINUOUS
 62
     7
 10
4.2361
 20
8.1823
 30
0
 11
4.2361
 21
8.0712
 31
0
  0
LINE
  8
LAYER1
  6
CONTINUOUS
 62
     7
 10
4.1944
 20
8.1962
 30
0
 11
4.1944
 21
8.0573
 31
0
  0
LINE
  8
LAYER1
  6
CONTINUOUS
 62
     7
 10
4.2083
 20
8.1823
 30
0
 11
4.2083
 21
8.0712
 31
0
  0
LINE
  8
LAYER1
  6
CONTINUOUS
 62
     7
 10
4.1667
 20
8.1962
 30
0
 11
4.1667
 21
8.0573
 31
0
  0
LINE
  8
LAYER1
  6
CONTINUOUS
 62
     7
 10
4.1806
 20
8.1823
 30
0
 11
4.1806
 21
8.0712
 31
0
  0
LINE
  8
LAYER1
  6
CONTINUOUS
 62
     7
 10
4.125
 20
8.1962
 30
0
 11
4.125
 21
8.0573
 31
0
  0
LINE
  8
LAYER1
  6
CONTINUOUS
 62
     7
 10
4.1389
 20
8.1823
 30
0
 11
4.1389
 21
8.0712
 31
0
  0
LINE
  8
LAYER1
  6
CONTINUOUS
 62
     7
 10
4.0972
 20
8.1962
 30
0
 11
4.0972
 21
8.0573
 31
0
  0
LINE
  8
LAYER1
  6
CONTINUOUS
 62
     7
 10
4.1111
 20
8.1823
 30
0
 11
4.1111
 21
8.0712
 31
0
  0
LINE
  8
LAYER1
  6
CONTINUOUS
 62
     7
 10
4.0694
 20
8.1962
 30
0
 11
4.0694
 21
8.0573
 31
0
  0
LINE
  8
LAYER1
  6
CONTINUOUS
 62
     7
 10
4.0833
 20
8.1823
 30
0
 11
4.0833
 21
8.0712
 31
0
  0
LINE
  8
LAYER1
  6
CONTINUOUS
 62
     7
 10
4.0417
 20
8.1962
 30
0
 11
4.0417
 21
8.0573
 31
0
  0
LINE
  8
LAYER1
  6
CONTINUOUS
 62
     7
 10
4.0556
 20
8.1823
 30
0
 11
4.0556
 21
8.0712
 31
0
  0
LINE
  8
LAYER1
  6
CONTINUOUS
 62
     7
 10
4
 20
8.1962
 30
0
 11
4
 21
8.0573
 31
0
  0
LINE
  8
LAYER1
  6
CONTINUOUS
 62
     7
 10
4.0139
 20
8.1823
 30
0
 11
4.0139
 21
8.0712
 31
0
  0
LINE
  8
LAYER1
  6
CONTINUOUS
 62
     7
 10
3.9722
 20
8.1962
 30
0
 11
3.9722
 21
8.0573
 31
0
  0
LINE
  8
LAYER1
  6
CONTINUOUS
 62
     7
 10
3.9861
 20
8.1823
 30
0
 11
3.9861
 21
8.0712
 31
0
  0
LINE
  8
LAYER1
  6
CONTINUOUS
 62
     7
 10
3.9444
 20
8.1962
 30
0
 11
3.9444
 21
8.0573
 31
0
  0
LINE
  8
LAYER1
  6
CONTINUOUS
 62
     7
 10
3.9583
 20
8.1823
 30
0
 11
3.9583
 21
8.0712
 31
0
  0
LINE
  8
LAYER1
  6
CONTINUOUS
 62
     7
 10
3.9167
 20
8.1962
 30
0
 11
3.9167
 21
8.0573
 31
0
  0
LINE
  8
LAYER1
  6
CONTINUOUS
 62
     7
 10
3.9306
 20
8.1823
 30
0
 11
3.9306
 21
8.0712
 31
0
  0
LINE
  8
LAYER1
  6
CONTINUOUS
 62
     7
 10
3.875
 20
8.1962
 30
0
 11
3.875
 21
8.0573
 31
0
  0
LINE
  8
LAYER1
  6
CONTINUOUS
 62
     7
 10
3.8889
 20
8.1823
 30
0
 11
3.8889
 21
8.0712
 31
0
  0
LINE
  8
LAYER1
  6
CONTINUOUS
 62
     7
 10
3.8472
 20
8.1962
 30
0
 11
3.8472
 21
8.0573
 31
0
  0
LINE
  8
LAYER1
  6
CONTINUOUS
 62
     7
 10
3.8611
 20
8.1823
 30
0
 11
3.8611
 21
8.0712
 31
0
  0
LINE
  8
LAYER1
  6
CONTINUOUS
 62
     7
 10
3.8194
 20
8.1962
 30
0
 11
3.8194
 21
8.0573
 31
0
  0
LINE
  8
LAYER1
  6
CONTINUOUS
 62
     7
 10
3.8333
 20
8.1823
 30
0
 11
3.8333
 21
8.0712
 31
0
  0
LINE
  8
LAYER1
  6
CONTINUOUS
 62
     7
 10
3.7917
 20
8.1962
 30
0
 11
3.7917
 21
8.0573
 31
0
  0
LINE
  8
LAYER1
  6
CONTINUOUS
 62
     7
 10
3.8056
 20
8.1823
 30
0
 11
3.8056
 21
8.0712
 31
0
  0
LINE
  8
LAYER1
  6
CONTINUOUS
 62
     7
 10
3.75
 20
8.1962
 30
0
 11
3.75
 21
8.0573
 31
0
  0
LINE
  8
LAYER1
  6
CONTINUOUS
 62
     7
 10
3.7639
 20
8.1823
 30
0
 11
3.7639
 21
8.0712
 31
0
  0
LINE
  8
LAYER1
  6
CONTINUOUS
 62
     7
 10
3.7222
 20
8.1962
 30
0
 11
3.7222
 21
8.0573
 31
0
  0
LINE
  8
LAYER1
  6
CONTINUOUS
 62
     7
 10
3.7361
 20
8.1823
 30
0
 11
3.7361
 21
8.0712
 31
0
  0
LINE
  8
LAYER1
  6
CONTINUOUS
 62
     7
 10
3.6944
 20
8.1962
 30
0
 11
3.6944
 21
8.0573
 31
0
  0
LINE
  8
LAYER1
  6
CONTINUOUS
 62
     7
 10
3.7083
 20
8.1823
 30
0
 11
3.7083
 21
8.0712
 31
0
  0
LINE
  8
LAYER1
  6
CONTINUOUS
 62
     7
 10
3.6667
 20
8.1962
 30
0
 11
3.6667
 21
8.0573
 31
0
  0
LINE
  8
LAYER1
  6
CONTINUOUS
 62
     7
 10
3.6806
 20
8.1823
 30
0
 11
3.6806
 21
8.0712
 31
0
  0
LINE
  8
LAYER1
  6
CONTINUOUS
 62
     7
 10
3.625
 20
8.1962
 30
0
 11
3.625
 21
8.0573
 31
0
  0
LINE
  8
LAYER1
  6
CONTINUOUS
 62
     7
 10
3.6389
 20
8.1823
 30
0
 11
3.6389
 21
8.0712
 31
0
  0
LINE
  8
LAYER1
  6
CONTINUOUS
 62
     7
 10
3.5972
 20
8.1962
 30
0
 11
3.5972
 21
8.0573
 31
0
  0
LINE
  8
LAYER1
  6
CONTINUOUS
 62
     7
 10
3.6111
 20
8.1823
 30
0
 11
3.6111
 21
8.0712
 31
0
  0
LINE
  8
LAYER1
  6
CONTINUOUS
 62
     7
 10
3.5694
 20
8.1962
 30
0
 11
3.5694
 21
8.0573
 31
0
  0
LINE
  8
LAYER1
  6
CONTINUOUS
 62
     7
 10
3.5833
 20
8.1823
 30
0
 11
3.5833
 21
8.0712
 31
0
  0
LINE
  8
LAYER1
  6
CONTINUOUS
 62
     7
 10
3.5417
 20
8.1962
 30
0
 11
3.5417
 21
8.0573
 31
0
  0
LINE
  8
LAYER1
  6
CONTINUOUS
 62
     7
 10
3.5556
 20
8.1823
 30
0
 11
3.5556
 21
8.0712
 31
0
  0
LINE
  8
LAYER1
  6
CONTINUOUS
 62
     7
 10
3.5278
 20
8.1962
 30
0
 11
3.5278
 21
8.0573
 31
0
  0
LINE
  8
LAYER1
  6
CONTINUOUS
 62
     7
 10
3.5278
 20
8.1962
 30
0
 11
4.7778
 21
8.1962
 31
0
  0
INSERT
  8
LAYER1
  2
Group76
 10
0
 20
0
 30
0
  0
ENDBLK
  8
LAYER1
  0
BLOCK
  8
LAYER1
  2
Group78
 70
     0
 10
0
 20
0
 30
0
  0
POLYLINE
  8
LAYER1
  6
CONTINUOUS
 62
     7
 66
     1
 70
     0
 40
0.001
 41
0.001
  0
VERTEX
  8
LAYER1
 10
5.0278
 20
8.7101
 30
0
 70
     0
  0
VERTEX
  8
LAYER1
 10
3.5278
 20
8.7101
 30
0
 70
     0
  0
VERTEX
  8
LAYER1
 10
3.5
 20
8.6962
 30
0
 70
     0
  0
SEQEND
  0
ENDBLK
  8
LAYER1
  0
BLOCK
  8
LAYER1
  2
Group79
 70
     0
 10
0
 20
0
 30
0
  0
LINE
  8
LAYER1
  6
CONTINUOUS
 62
     7
 10
3.5278
 20
8.1962
 30
0
 11
3.5
 21
8.1962
 31
0
  0
LINE
  8
LAYER1
  6
CONTINUOUS
 62
     7
 10
4.7917
 20
8.8489
 30
0
 11
4.7917
 21
8.7101
 31
0
  0
LINE
  8
LAYER1
  6
CONTINUOUS
 62
     7
 10
4.8056
 20
8.8351
 30
0
 11
4.8056
 21
8.7239
 31
0
  0
LINE
  8
LAYER1
  6
CONTINUOUS
 62
     7
 10
4.8194
 20
8.8489
 30
0
 11
4.8194
 21
8.7101
 31
0
  0
LINE
  8
LAYER1
  6
CONTINUOUS
 62
     7
 10
4.8333
 20
8.8351
 30
0
 11
4.8333
 21
8.7239
 31
0
  0
LINE
  8
LAYER1
  6
CONTINUOUS
 62
     7
 10
4.8472
 20
8.8489
 30
0
 11
4.8472
 21
8.7101
 31
0
  0
LINE
  8
LAYER1
  6
CONTINUOUS
 62
     7
 10
4.8611
 20
8.8351
 30
0
 11
4.8611
 21
8.7239
 31
0
  0
LINE
  8
LAYER1
  6
CONTINUOUS
 62
     7
 10
4.875
 20
8.8489
 30
0
 11
4.875
 21
8.7101
 31
0
  0
LINE
  8
LAYER1
  6
CONTINUOUS
 62
     7
 10
4.9028
 20
8.8351
 30
0
 11
4.9028
 21
8.7239
 31
0
  0
LINE
  8
LAYER1
  6
CONTINUOUS
 62
     7
 10
4.9167
 20
8.8489
 30
0
 11
4.9167
 21
8.7101
 31
0
  0
LINE
  8
LAYER1
  6
CONTINUOUS
 62
     7
 10
4.9306
 20
8.8351
 30
0
 11
4.9306
 21
8.7239
 31
0
  0
LINE
  8
LAYER1
  6
CONTINUOUS
 62
     7
 10
4.9444
 20
8.8489
 30
0
 11
4.9444
 21
8.7101
 31
0
  0
LINE
  8
LAYER1
  6
CONTINUOUS
 62
     7
 10
4.9583
 20
8.8351
 30
0
 11
4.9583
 21
8.7239
 31
0
  0
LINE
  8
LAYER1
  6
CONTINUOUS
 62
     7
 10
4.9722
 20
8.8489
 30
0
 11
4.9722
 21
8.7101
 31
0
  0
LINE
  8
LAYER1
  6
CONTINUOUS
 62
     7
 10
4.9861
 20
8.8351
 30
0
 11
4.9861
 21
8.7239
 31
0
  0
LINE
  8
LAYER1
  6
CONTINUOUS
 62
     7
 10
5.0278
 20
8.8489
 30
0
 11
5.0278
 21
8.7101
 31
0
  0
LINE
  8
LAYER1
  6
CONTINUOUS
 62
     7
 10
5.0417
 20
8.8351
 30
0
 11
5.0417
 21
8.7239
 31
0
  0
LINE
  8
LAYER1
  6
CONTINUOUS
 62
     7
 10
5.0278
 20
8.8489
 30
0
 11
5.0417
 21
8.8351
 31
0
  0
LINE
  8
LAYER1
  6
CONTINUOUS
 62
     7
 10
5.0278
 20
8.7101
 30
0
 11
5.0417
 21
8.7239
 31
0
  0
LINE
  8
LAYER1
  6
CONTINUOUS
 62
     7
 10
4.75
 20
8.8489
 30
0
 11
4.75
 21
8.7101
 31
0
  0
LINE
  8
LAYER1
  6
CONTINUOUS
 62
     7
 10
4.7778
 20
8.8351
 30
0
 11
4.7778
 21
8.7239
 31
0
  0
LINE
  8
LAYER1
  6
CONTINUOUS
 62
     7
 10
4.7222
 20
8.8489
 30
0
 11
4.7222
 21
8.7101
 31
0
  0
LINE
  8
LAYER1
  6
CONTINUOUS
 62
     7
 10
4.7361
 20
8.8351
 30
0
 11
4.7361
 21
8.7239
 31
0
  0
LINE
  8
LAYER1
  6
CONTINUOUS
 62
     7
 10
4.6944
 20
8.8489
 30
0
 11
4.6944
 21
8.7101
 31
0
  0
LINE
  8
LAYER1
  6
CONTINUOUS
 62
     7
 10
4.7083
 20
8.8351
 30
0
 11
4.7083
 21
8.7239
 31
0
  0
LINE
  8
LAYER1
  6
CONTINUOUS
 62
     7
 10
4.6667
 20
8.8489
 30
0
 11
4.6667
 21
8.7101
 31
0
  0
LINE
  8
LAYER1
  6
CONTINUOUS
 62
     7
 10
4.6806
 20
8.8351
 30
0
 11
4.6806
 21
8.7239
 31
0
  0
LINE
  8
LAYER1
  6
CONTINUOUS
 62
     7
 10
4.625
 20
8.8489
 30
0
 11
4.625
 21
8.7101
 31
0
  0
LINE
  8
LAYER1
  6
CONTINUOUS
 62
     7
 10
4.6528
 20
8.8351
 30
0
 11
4.6528
 21
8.7239
 31
0
  0
LINE
  8
LAYER1
  6
CONTINUOUS
 62
     7
 10
4.5972
 20
8.8489
 30
0
 11
4.5972
 21
8.7101
 31
0
  0
LINE
  8
LAYER1
  6
CONTINUOUS
 62
     7
 10
4.6111
 20
8.8351
 30
0
 11
4.6111
 21
8.7239
 31
0
  0
LINE
  8
LAYER1
  6
CONTINUOUS
 62
     7
 10
4.5694
 20
8.8489
 30
0
 11
4.5694
 21
8.7101
 31
0
  0
LINE
  8
LAYER1
  6
CONTINUOUS
 62
     7
 10
4.5833
 20
8.8351
 30
0
 11
4.5833
 21
8.7239
 31
0
  0
LINE
  8
LAYER1
  6
CONTINUOUS
 62
     7
 10
4.5417
 20
8.8489
 30
0
 11
4.5417
 21
8.7101
 31
0
  0
LINE
  8
LAYER1
  6
CONTINUOUS
 62
     7
 10
4.5556
 20
8.8351
 30
0
 11
4.5556
 21
8.7239
 31
0
  0
LINE
  8
LAYER1
  6
CONTINUOUS
 62
     7
 10
4.5
 20
8.8489
 30
0
 11
4.5
 21
8.7101
 31
0
  0
LINE
  8
LAYER1
  6
CONTINUOUS
 62
     7
 10
4.5278
 20
8.8351
 30
0
 11
4.5278
 21
8.7239
 31
0
  0
LINE
  8
LAYER1
  6
CONTINUOUS
 62
     7
 10
4.4722
 20
8.8489
 30
0
 11
4.4722
 21
8.7101
 31
0
  0
LINE
  8
LAYER1
  6
CONTINUOUS
 62
     7
 10
4.4861
 20
8.8351
 30
0
 11
4.4861
 21
8.7239
 31
0
  0
LINE
  8
LAYER1
  6
CONTINUOUS
 62
     7
 10
4.4444
 20
8.8489
 30
0
 11
4.4444
 21
8.7101
 31
0
  0
LINE
  8
LAYER1
  6
CONTINUOUS
 62
     7
 10
4.4583
 20
8.8351
 30
0
 11
4.4583
 21
8.7239
 31
0
  0
LINE
  8
LAYER1
  6
CONTINUOUS
 62
     7
 10
4.4167
 20
8.8489
 30
0
 11
4.4167
 21
8.7101
 31
0
  0
LINE
  8
LAYER1
  6
CONTINUOUS
 62
     7
 10
4.4306
 20
8.8351
 30
0
 11
4.4306
 21
8.7239
 31
0
  0
LINE
  8
LAYER1
  6
CONTINUOUS
 62
     7
 10
4.375
 20
8.8489
 30
0
 11
4.375
 21
8.7101
 31
0
  0
LINE
  8
LAYER1
  6
CONTINUOUS
 62
     7
 10
4.3889
 20
8.8351
 30
0
 11
4.3889
 21
8.7239
 31
0
  0
LINE
  8
LAYER1
  6
CONTINUOUS
 62
     7
 10
4.3472
 20
8.8489
 30
0
 11
4.3472
 21
8.7101
 31
0
  0
LINE
  8
LAYER1
  6
CONTINUOUS
 62
     7
 10
4.3611
 20
8.8351
 30
0
 11
4.3611
 21
8.7239
 31
0
  0
LINE
  8
LAYER1
  6
CONTINUOUS
 62
     7
 10
4.3194
 20
8.8489
 30
0
 11
4.3194
 21
8.7101
 31
0
  0
LINE
  8
LAYER1
  6
CONTINUOUS
 62
     7
 10
4.3333
 20
8.8351
 30
0
 11
4.3333
 21
8.7239
 31
0
  0
LINE
  8
LAYER1
  6
CONTINUOUS
 62
     7
 10
4.2917
 20
8.8489
 30
0
 11
4.2917
 21
8.7101
 31
0
  0
LINE
  8
LAYER1
  6
CONTINUOUS
 62
     7
 10
4.3056
 20
8.8351
 30
0
 11
4.3056
 21
8.7239
 31
0
  0
LINE
  8
LAYER1
  6
CONTINUOUS
 62
     7
 10
4.25
 20
8.8489
 30
0
 11
4.25
 21
8.7101
 31
0
  0
LINE
  8
LAYER1
  6
CONTINUOUS
 62
     7
 10
4.2639
 20
8.8351
 30
0
 11
4.2639
 21
8.7239
 31
0
  0
LINE
  8
LAYER1
  6
CONTINUOUS
 62
     7
 10
4.2222
 20
8.8489
 30
0
 11
4.2222
 21
8.7101
 31
0
  0
LINE
  8
LAYER1
  6
CONTINUOUS
 62
     7
 10
4.2361
 20
8.8351
 30
0
 11
4.2361
 21
8.7239
 31
0
  0
LINE
  8
LAYER1
  6
CONTINUOUS
 62
     7
 10
4.1944
 20
8.8489
 30
0
 11
4.1944
 21
8.7101
 31
0
  0
LINE
  8
LAYER1
  6
CONTINUOUS
 62
     7
 10
4.2083
 20
8.8351
 30
0
 11
4.2083
 21
8.7239
 31
0
  0
LINE
  8
LAYER1
  6
CONTINUOUS
 62
     7
 10
4.1667
 20
8.8489
 30
0
 11
4.1667
 21
8.7101
 31
0
  0
LINE
  8
LAYER1
  6
CONTINUOUS
 62
     7
 10
4.1806
 20
8.8351
 30
0
 11
4.1806
 21
8.7239
 31
0
  0
LINE
  8
LAYER1
  6
CONTINUOUS
 62
     7
 10
4.125
 20
8.8489
 30
0
 11
4.125
 21
8.7101
 31
0
  0
LINE
  8
LAYER1
  6
CONTINUOUS
 62
     7
 10
4.1389
 20
8.8351
 30
0
 11
4.1389
 21
8.7239
 31
0
  0
LINE
  8
LAYER1
  6
CONTINUOUS
 62
     7
 10
4.0972
 20
8.8489
 30
0
 11
4.0972
 21
8.7101
 31
0
  0
LINE
  8
LAYER1
  6
CONTINUOUS
 62
     7
 10
4.1111
 20
8.8351
 30
0
 11
4.1111
 21
8.7239
 31
0
  0
LINE
  8
LAYER1
  6
CONTINUOUS
 62
     7
 10
4.0694
 20
8.8489
 30
0
 11
4.0694
 21
8.7101
 31
0
  0
LINE
  8
LAYER1
  6
CONTINUOUS
 62
     7
 10
4.0833
 20
8.8351
 30
0
 11
4.0833
 21
8.7239
 31
0
  0
LINE
  8
LAYER1
  6
CONTINUOUS
 62
     7
 10
4.0417
 20
8.8489
 30
0
 11
4.0417
 21
8.7101
 31
0
  0
LINE
  8
LAYER1
  6
CONTINUOUS
 62
     7
 10
4.0556
 20
8.8351
 30
0
 11
4.0556
 21
8.7239
 31
0
  0
LINE
  8
LAYER1
  6
CONTINUOUS
 62
     7
 10
4
 20
8.8489
 30
0
 11
4
 21
8.7101
 31
0
  0
LINE
  8
LAYER1
  6
CONTINUOUS
 62
     7
 10
4.0139
 20
8.8351
 30
0
 11
4.0139
 21
8.7239
 31
0
  0
LINE
  8
LAYER1
  6
CONTINUOUS
 62
     7
 10
3.9722
 20
8.8489
 30
0
 11
3.9722
 21
8.7101
 31
0
  0
LINE
  8
LAYER1
  6
CONTINUOUS
 62
     7
 10
3.9861
 20
8.8351
 30
0
 11
3.9861
 21
8.7239
 31
0
  0
LINE
  8
LAYER1
  6
CONTINUOUS
 62
     7
 10
3.9444
 20
8.8489
 30
0
 11
3.9444
 21
8.7101
 31
0
  0
LINE
  8
LAYER1
  6
CONTINUOUS
 62
     7
 10
3.9583
 20
8.8351
 30
0
 11
3.9583
 21
8.7239
 31
0
  0
LINE
  8
LAYER1
  6
CONTINUOUS
 62
     7
 10
3.9167
 20
8.8489
 30
0
 11
3.9167
 21
8.7101
 31
0
  0
LINE
  8
LAYER1
  6
CONTINUOUS
 62
     7
 10
3.9306
 20
8.8351
 30
0
 11
3.9306
 21
8.7239
 31
0
  0
LINE
  8
LAYER1
  6
CONTINUOUS
 62
     7
 10
3.875
 20
8.8489
 30
0
 11
3.875
 21
8.7101
 31
0
  0
LINE
  8
LAYER1
  6
CONTINUOUS
 62
     7
 10
3.8889
 20
8.8351
 30
0
 11
3.8889
 21
8.7239
 31
0
  0
LINE
  8
LAYER1
  6
CONTINUOUS
 62
     7
 10
3.8472
 20
8.8489
 30
0
 11
3.8472
 21
8.7101
 31
0
  0
LINE
  8
LAYER1
  6
CONTINUOUS
 62
     7
 10
3.8611
 20
8.8351
 30
0
 11
3.8611
 21
8.7239
 31
0
  0
LINE
  8
LAYER1
  6
CONTINUOUS
 62
     7
 10
3.8194
 20
8.8489
 30
0
 11
3.8194
 21
8.7101
 31
0
  0
LINE
  8
LAYER1
  6
CONTINUOUS
 62
     7
 10
3.8333
 20
8.8351
 30
0
 11
3.8333
 21
8.7239
 31
0
  0
LINE
  8
LAYER1
  6
CONTINUOUS
 62
     7
 10
3.7917
 20
8.8489
 30
0
 11
3.7917
 21
8.7101
 31
0
  0
LINE
  8
LAYER1
  6
CONTINUOUS
 62
     7
 10
3.8056
 20
8.8351
 30
0
 11
3.8056
 21
8.7239
 31
0
  0
LINE
  8
LAYER1
  6
CONTINUOUS
 62
     7
 10
3.75
 20
8.8489
 30
0
 11
3.75
 21
8.7101
 31
0
  0
LINE
  8
LAYER1
  6
CONTINUOUS
 62
     7
 10
3.7639
 20
8.8351
 30
0
 11
3.7639
 21
8.7239
 31
0
  0
LINE
  8
LAYER1
  6
CONTINUOUS
 62
     7
 10
3.7222
 20
8.8489
 30
0
 11
3.7222
 21
8.7101
 31
0
  0
LINE
  8
LAYER1
  6
CONTINUOUS
 62
     7
 10
3.7361
 20
8.8351
 30
0
 11
3.7361
 21
8.7239
 31
0
  0
LINE
  8
LAYER1
  6
CONTINUOUS
 62
     7
 10
3.6944
 20
8.8489
 30
0
 11
3.6944
 21
8.7101
 31
0
  0
LINE
  8
LAYER1
  6
CONTINUOUS
 62
     7
 10
3.7083
 20
8.8351
 30
0
 11
3.7083
 21
8.7239
 31
0
  0
LINE
  8
LAYER1
  6
CONTINUOUS
 62
     7
 10
3.6667
 20
8.8489
 30
0
 11
3.6667
 21
8.7101
 31
0
  0
LINE
  8
LAYER1
  6
CONTINUOUS
 62
     7
 10
3.6806
 20
8.8351
 30
0
 11
3.6806
 21
8.7239
 31
0
  0
LINE
  8
LAYER1
  6
CONTINUOUS
 62
     7
 10
3.625
 20
8.8489
 30
0
 11
3.625
 21
8.7101
 31
0
  0
LINE
  8
LAYER1
  6
CONTINUOUS
 62
     7
 10
3.6389
 20
8.8351
 30
0
 11
3.6389
 21
8.7239
 31
0
  0
LINE
  8
LAYER1
  6
CONTINUOUS
 62
     7
 10
3.5972
 20
8.8489
 30
0
 11
3.5972
 21
8.7101
 31
0
  0
LINE
  8
LAYER1
  6
CONTINUOUS
 62
     7
 10
3.6111
 20
8.8351
 30
0
 11
3.6111
 21
8.7239
 31
0
  0
LINE
  8
LAYER1
  6
CONTINUOUS
 62
     7
 10
3.5694
 20
8.8489
 30
0
 11
3.5694
 21
8.7101
 31
0
  0
LINE
  8
LAYER1
  6
CONTINUOUS
 62
     7
 10
3.5833
 20
8.8351
 30
0
 11
3.5833
 21
8.7239
 31
0
  0
LINE
  8
LAYER1
  6
CONTINUOUS
 62
     7
 10
3.5417
 20
8.8489
 30
0
 11
3.5417
 21
8.7101
 31
0
  0
LINE
  8
LAYER1
  6
CONTINUOUS
 62
     7
 10
3.5556
 20
8.8351
 30
0
 11
3.5556
 21
8.7239
 31
0
  0
LINE
  8
LAYER1
  6
CONTINUOUS
 62
     7
 10
3.5278
 20
8.8489
 30
0
 11
3.5278
 21
8.7101
 31
0
  0
LINE
  8
LAYER1
  6
CONTINUOUS
 62
     7
 10
3.5278
 20
8.8489
 30
0
 11
5.0278
 21
8.8489
 31
0
  0
INSERT
  8
LAYER1
  2
Group78
 10
0
 20
0
 30
0
  0
ENDBLK
  8
LAYER1
  0
BLOCK
  8
LAYER1
  2
Group80
 70
     0
 10
0
 20
0
 30
0
  0
TEXT
  8
LAYER1
 62
     7
 10
2.5964
 20
0.0353
 30
0
 40
0.1389
  1
- 4-288 -
 50
0
999
Geneva
  0
TEXT
  8
LAYER1
 62
     7
 10
10.9714
 20
0.0353
 30
0
 40
0.1389
  1
- 4-289 -
 50
0
999
Geneva
  0
TEXT
  8
LAYER1
 62
     7
 10
9.0547
 20
8.4381
 30
0
 40
0.0972
  1
D8
 50
0
999
Geneva
  0
TEXT
  8
LAYER1
 62
     7
 10
8.8186
 20
8.2575
 30
0
 40
0.0972
  1
(0.164")
 50
0
999
Geneva
  0
TEXT
  8
LAYER1
 62
     7
 10
9.013
 20
6.1047
 30
0
 40
0.0972
  1
D10
 50
0
999
Geneva
  0
TEXT
  8
LAYER1
 62
     7
 10
8.8186
 20
5.9242
 30
0
 40
0.0972
  1
(0.190")
 50
0
999
Geneva
  0
TEXT
  8
LAYER1
 62
     7
 10
8.9992
 20
3.5631
 30
0
 40
0.0972
  1
.25"
 50
0
999
Geneva
  0
TEXT
  8
LAYER1
 62
     7
 10
0.2353
 20
10.5214
 30
0
 40
0.125
  1
Holes - ANS Various Lengths/Diameters (Small)
 50
0
999
Geneva
  0
LINE
  8
LAYER1
  6
CONTINUOUS
 62
     7
 10
0.2083
 20
10.7656
 30
0
 11
5.0139
 21
10.7656
 31
0
  0
TEXT
  8
LAYER1
 62
     7
 10
12.5269
 20
9.077
 30
0
 40
0.0972
  1
1-1/2
 50
0
999
Geneva
  0
TEXT
  8
LAYER1
 62
     7
 10
13.138
 20
9.077
 30
0
 40
0.0972
  1
1-3/4
 50
0
999
Geneva
  0
TEXT
  8
LAYER1
 62
     7
 10
14.0269
 20
9.077
 30
0
 40
0.0972
  1
2
 50
0
999
Geneva
  0
TEXT
  8
LAYER1
 62
     7
 10
9.8464
 20
9.0492
 30
0
 40
0.0972
  1
3/8
 50
0
999
Geneva
  0
TEXT
  8
LAYER1
 62
     7
 10
10.388
 20
9.0492
 30
0
 40
0.0972
  1
1/2
 50
0
999
Geneva
  0
TEXT
  8
LAYER1
 62
     7
 10
10.9019
 20
9.0492
 30
0
 40
0.0972
  1
3/4
 50
0
999
Geneva
  0
TEXT
  8
LAYER1
 62
     7
 10
11.5547
 20
9.0492
 30
0
 40
0.0972
  1
1
 50
0
999
Geneva
  0
TEXT
  8
LAYER1
 62
     7
 10
11.9714
 20
9.0492
 30
0
 40
0.0972
  1
1-1/4
 50
0
999
Geneva
  0
LINE
  8
LAYER1
  6
CONTINUOUS
 62
     7
 10
0.2222
 20
10.4462
 30
0
 11
5.0417
 21
10.4462
 31
0
  0
TEXT
  8
LAYER1
 62
     7
 10
11.0686
 20
9.2714
 30
0
 40
0.1389
  1
LENGTH (inches)
 50
0
999
Geneva
  0
TEXT
  8
LAYER1
 62
     7
 10
8.9992
 20
9.3825
 30
0
 40
0.1389
  1
ANS
 50
0
999
Geneva
  0
TEXT
  8
LAYER1
 62
     7
 10
8.7214
 20
9.1186
 30
0
 40
0.1389
  1
DIAMETER
 50
0
999
Geneva
  0
POLYLINE
  8
LAYER1
  6
CONTINUOUS
 62
     7
 66
     1
 70
     0
 40
0.001
 41
0.001
  0
VERTEX
  8
LAYER1
 10
9.5833
 20
1.5434
 30
0
 70
     0
  0
VERTEX
  8
LAYER1
 10
9.5833
 20
8.9739
 30
0
 70
     0
  0
VERTEX
  8
LAYER1
 10
14.3611
 20
8.9739
 30
0
 70
     0
  0
SEQEND
  0
INSERT
  8
LAYER1
  2
Group1
 10
0
 20
0
 30
0
  0
INSERT
  8
LAYER1
  2
Group3
 10
0
 20
0
 30
0
  0
INSERT
  8
LAYER1
  2
Group4
 10
0
 20
0
 30
0
  0
INSERT
  8
LAYER1
  2
Group5
 10
0
 20
0
 30
0
  0
INSERT
  8
LAYER1
  2
Group6
 10
0
 20
0
 30
0
  0
INSERT
  8
LAYER1
  2
Group7
 10
0
 20
0
 30
0
  0
INSERT
  8
LAYER1
  2
Group8
 10
0
 20
0
 30
0
  0
INSERT
  8
LAYER1
  2
Group9
 10
0
 20
0
 30
0
  0
LINE
  8
LAYER1
  6
CONTINUOUS
 62
     7
 10
14.1667
 20
8.4184
 30
0
 11
14.1667
 21
8.4323
 31
0
  0
INSERT
  8
LAYER1
  2
Group11
 10
0
 20
0
 30
0
  0
INSERT
  8
LAYER1
  2
Group13
 10
0
 20
0
 30
0
  0
INSERT
  8
LAYER1
  2
Group15
 10
0
 20
0
 30
0
  0
INSERT
  8
LAYER1
  2
Group17
 10
0
 20
0
 30
0
  0
INSERT
  8
LAYER1
  2
Group19
 10
0
 20
0
 30
0
  0
INSERT
  8
LAYER1
  2
Group21
 10
0
 20
0
 30
0
  0
INSERT
  8
LAYER1
  2
Group23
 10
0
 20
0
 30
0
  0
INSERT
  8
LAYER1
  2
Group25
 10
0
 20
0
 30
0
  0
LINE
  8
LAYER1
  6
CONTINUOUS
 62
     7
 10
14.1806
 20
6.0573
 30
0
 11
14.1806
 21
6.0712
 31
0
  0
INSERT
  8
LAYER1
  2
Group27
 10
0
 20
0
 30
0
  0
INSERT
  8
LAYER1
  2
Group29
 10
0
 20
0
 30
0
  0
INSERT
  8
LAYER1
  2
Group31
 10
0
 20
0
 30
0
  0
INSERT
  8
LAYER1
  2
Group33
 10
0
 20
0
 30
0
  0
INSERT
  8
LAYER1
  2
Group35
 10
0
 20
0
 30
0
  0
INSERT
  8
LAYER1
  2
Group37
 10
0
 20
0
 30
0
  0
INSERT
  8
LAYER1
  2
Group39
 10
0
 20
0
 30
0
  0
INSERT
  8
LAYER1
  2
Group41
 10
0
 20
0
 30
0
  0
TEXT
  8
LAYER1
 62
     7
 10
0.263
 20
9.7297
 30
0
 40
0.1389
  1
LENGTH (inches)
 50
0
999
Geneva
  0
TEXT
  8
LAYER1
 62
     7
 10
1.8464
 20
3.1603
 30
0
 40
0.0972
  1
D2
 50
0
999
Geneva
  0
TEXT
  8
LAYER1
 62
     7
 10
2.0226
 20
3.1603
 30
0
 40
0.0972
  1
 
 50
0
999
Geneva
  0
TEXT
  8
LAYER1
 62
     7
 10
1.6103
 20
2.9797
 30
0
 40
0.0972
  1
(0.086")
 50
0
999
Geneva
  0
TEXT
  8
LAYER1
 62
     7
 10
2.5547
 20
3.1603
 30
0
 40
0.0972
  1
D5
 50
0
999
Geneva
  0
TEXT
  8
LAYER1
 62
     7
 10
2.3186
 20
2.9797
 30
0
 40
0.0972
  1
(0.125")
 50
0
999
Geneva
  0
TEXT
  8
LAYER1
 62
     7
 10
3.4714
 20
3.1603
 30
0
 40
0.0972
  1
D6
 50
0
999
Geneva
  0
TEXT
  8
LAYER1
 62
     7
 10
3.2353
 20
2.9797
 30
0
 40
0.0972
  1
(0.138")
 50
0
999
Geneva
  0
TEXT
  8
LAYER1
 62
     7
 10
1.1519
 20
8.827
 30
0
 40
0.0972
  1
1-1/2
 50
0
999
Geneva
  0
LINE
  8
LAYER1
  6
CONTINUOUS
 62
     7
 10
13.5
 20
3.6823
 30
0
 11
13.5139
 21
3.7101
 31
0
  0
TEXT
  8
LAYER1
 62
     7
 10
0.7492
 20
3.2297
 30
0
 40
0.1389
  1
ANS
 50
0
999
Geneva
  0
TEXT
  8
LAYER1
 62
     7
 10
0.4714
 20
2.9658
 30
0
 40
0.1389
  1
DIAMETER
 50
0
999
Geneva
  0
TEXT
  8
LAYER1
 62
     7
 10
1.3047
 20
3.7297
 30
0
 40
0.0972
  1
3/32
 50
0
999
Geneva
  0
TEXT
  8
LAYER1
 62
     7
 10
1.4158
 20
4.2575
 30
0
 40
0.0972
  1
1/8
 50
0
999
Geneva
  0
TEXT
  8
LAYER1
 62
     7
 10
1.4297
 20
4.7853
 30
0
 40
0.0972
  1
1/4
 50
0
999
Geneva
  0
TEXT
  8
LAYER1
 62
     7
 10
1.3325
 20
5.3686
 30
0
 40
0.0972
  1
5/16
 50
0
999
Geneva
  0
TEXT
  8
LAYER1
 62
     7
 10
1.4019
 20
5.8964
 30
0
 40
0.0972
  1
3/8
 50
0
999
Geneva
  0
TEXT
  8
LAYER1
 62
     7
 10
1.4158
 20
6.4242
 30
0
 40
0.0972
  1
1/2
 50
0
999
Geneva
  0
TEXT
  8
LAYER1
 62
     7
 10
1.3742
 20
7.0075
 30
0
 40
0.0972
  1
3/4
 50
0
999
Geneva
  0
TEXT
  8
LAYER1
 62
     7
 10
1.513
 20
7.4936
 30
0
 40
0.0972
  1
1
 50
0
999
Geneva
  0
TEXT
  8
LAYER1
 62
     7
 10
1.2492
 20
8.1186
 30
0
 40
0.0972
  1
1-1/4
 50
0
999
Geneva
  0
LINE
  8
LAYER1
  6
CONTINUOUS
 62
     7
 10
1.7222
 20
3.5851
 30
0
 11
1.7222
 21
9.1267
 31
0
  0
INSERT
  8
LAYER1
  2
Group43
 10
0
 20
0
 30
0
  0
INSERT
  8
LAYER1
  2
Group45
 10
0
 20
0
 30
0
  0
INSERT
  8
LAYER1
  2
Group47
 10
0
 20
0
 30
0
  0
INSERT
  8
LAYER1
  2
Group49
 10
0
 20
0
 30
0
  0
INSERT
  8
LAYER1
  2
Group51
 10
0
 20
0
 30
0
  0
INSERT
  8
LAYER1
  2
Group53
 10
0
 20
0
 30
0
  0
LINE
  8
LAYER1
  6
CONTINUOUS
 62
     7
 10
1.8333
 20
6.5434
 30
0
 11
1.8194
 21
6.5573
 31
0
  0
INSERT
  8
LAYER1
  2
Group54
 10
0
 20
0
 30
0
  0
INSERT
  8
LAYER1
  2
Group56
 10
0
 20
0
 30
0
  0
INSERT
  8
LAYER1
  2
Group57
 10
0
 20
0
 30
0
  0
INSERT
  8
LAYER1
  2
Group59
 10
0
 20
0
 30
0
  0
INSERT
  8
LAYER1
  2
Group61
 10
0
 20
0
 30
0
  0
INSERT
  8
LAYER1
  2
Group63
 10
0
 20
0
 30
0
  0
LINE
  8
LAYER1
  6
CONTINUOUS
 62
     7
 10
2.5972
 20
7.1128
 30
0
 11
2.5833
 21
7.1128
 31
0
  0
INSERT
  8
LAYER1
  2
Group65
 10
0
 20
0
 30
0
  0
INSERT
  8
LAYER1
  2
Group67
 10
0
 20
0
 30
0
  0
INSERT
  8
LAYER1
  2
Group69
 10
0
 20
0
 30
0
  0
INSERT
  8
LAYER1
  2
Group71
 10
0
 20
0
 30
0
  0
INSERT
  8
LAYER1
  2
Group73
 10
0
 20
0
 30
0
  0
INSERT
  8
LAYER1
  2
Group75
 10
0
 20
0
 30
0
  0
INSERT
  8
LAYER1
  2
Group77
 10
0
 20
0
 30
0
  0
INSERT
  8
LAYER1
  2
Group79
 10
0
 20
0
 30
0
  0
LINE
  8
LAYER1
  6
CONTINUOUS
 62
     7
 10
3.5278
 20
8.8489
 30
0
 11
3.5
 21
8.8489
 31
0
  0
TEXT
  8
LAYER1
 62
     7
 10
8.6242
 20
10.5214
 30
0
 40
0.125
  1
Holes - ANS Various Lengths/Diameters (Small)
 50
0
999
Geneva
  0
LINE
  8
LAYER1
  6
CONTINUOUS
 62
     7
 10
4.3194
 20
3.5851
 30
0
 11
1.7222
 21
3.5851
 31
0
  0
LINE
  8
LAYER1
  6
CONTINUOUS
 62
     7
 10
8.5972
 20
10.7656
 30
0
 11
13.4028
 21
10.7656
 31
0
  0
TEXT
  8
LAYER1
 62
     7
 10
0.2075
 20
0.0492
 30
0
 40
0.0833
  1
Scale 1:1 Printed at 70%
 50
0
999
Geneva
  0
TEXT
  8
LAYER1
 62
     7
 10
4.763
 20
0.202
 30
0
 40
0.0833
  1
©1992
 50
0
999
Geneva
  0
TEXT
  8
LAYER1
 62
     7
 10
4.0547
 20
0.0353
 30
0
 40
0.0833
  1
Advanced System Design, Inc.
 50
0
999
Geneva
  0
TEXT
  8
LAYER1
 62
     7
 10
8.638
 20
0.0492
 30
0
 40
0.0833
  1
Scale 1:1 Printed at 70%
 50
0
999
Geneva
  0
TEXT
  8
LAYER1
 62
     7
 10
13.2214
 20
0.202
 30
0
 40
0.0833
  1
©1992
 50
0
999
Geneva
  0
TEXT
  8
LAYER1
 62
     7
 10
12.513
 20
0.0353
 30
0
 40
0.0833
  1
Advanced System Design, Inc.
 50
0
999
Geneva
  0
TEXT
  8
LAYER1
 62
     7
 10
1.9992
 20
3.9103
 30
0
 40
0.0833
  1
58300
 50
0
999
Geneva
  0
TEXT
  8
LAYER1
 62
     7
 10
1.9992
 20
4.4658
 30
0
 40
0.0833
  1
58301
 50
0
999
Geneva
  0
TEXT
  8
LAYER1
 62
     7
 10
1.9992
 20
5.0353
 30
0
 40
0.0833
  1
58302
 50
0
999
Geneva
  0
TEXT
  8
LAYER1
 62
     7
 10
1.9992
 20
5.5631
 30
0
 40
0.0833
  1
58303
 50
0
999
Geneva
  0
TEXT
  8
LAYER1
 62
     7
 10
1.9992
 20
6.1186
 30
0
 40
0.0833
  1
58304
 50
0
999
Geneva
  0
TEXT
  8
LAYER1
 62
     7
 10
1.9992
 20
6.6464
 30
0
 40
0.0833
  1
58305
 50
0
999
Geneva
  0
TEXT
  8
LAYER1
 62
     7
 10
2.7769
 20
4.4658
 30
0
 40
0.0833
  1
58306
 50
0
999
Geneva
  0
TEXT
  8
LAYER1
 62
     7
 10
2.7769
 20
5.0353
 30
0
 40
0.0833
  1
58307
 50
0
999
Geneva
  0
TEXT
  8
LAYER1
 62
     7
 10
2.7769
 20
5.5631
 30
0
 40
0.0833
  1
58308
 50
0
999
Geneva
  0
TEXT
  8
LAYER1
 62
     7
 10
2.7769
 20
6.1186
 30
0
 40
0.0833
  1
58309
 50
0
999
Geneva
  0
TEXT
  8
LAYER1
 62
     7
 10
2.7769
 20
6.6464
 30
0
 40
0.0833
  1
58310
 50
0
999
Geneva
  0
TEXT
  8
LAYER1
 62
     7
 10
2.7769
 20
7.2158
 30
0
 40
0.0833
  1
58311
 50
0
999
Geneva
  0
TEXT
  8
LAYER1
 62
     7
 10
3.7214
 20
5.0353
 30
0
 40
0.0833
  1
58312
 50
0
999
Geneva
  0
TEXT
  8
LAYER1
 62
     7
 10
3.7214
 20
5.5631
 30
0
 40
0.0833
  1
58313
 50
0
999
Geneva
  0
TEXT
  8
LAYER1
 62
     7
 10
3.7214
 20
6.1186
 30
0
 40
0.0833
  1
58314
 50
0
999
Geneva
  0
TEXT
  8
LAYER1
 62
     7
 10
3.7214
 20
6.6464
 30
0
 40
0.0833
  1
58315
 50
0
999
Geneva
  0
TEXT
  8
LAYER1
 62
     7
 10
3.7214
 20
7.2158
 30
0
 40
0.0833
  1
58316
 50
0
999
Geneva
  0
TEXT
  8
LAYER1
 62
     7
 10
3.7214
 20
7.7575
 30
0
 40
0.0833
  1
58317
 50
0
999
Geneva
  0
TEXT
  8
LAYER1
 62
     7
 10
3.7214
 20
8.327
 30
0
 40
0.0833
  1
58318
 50
0
999
Geneva
  0
TEXT
  8
LAYER1
 62
     7
 10
3.7214
 20
8.9658
 30
0
 40
0.0833
  1
58319
 50
0
999
Geneva
  0
TEXT
  8
LAYER1
 62
     7
 10
9.7769
 20
8.5353
 30
0
 40
0.0833
  1
58320
 50
0
999
Geneva
  0
TEXT
  8
LAYER1
 62
     7
 10
10.3186
 20
8.5353
 30
0
 40
0.0833
  1
58321
 50
0
999
Geneva
  0
TEXT
  8
LAYER1
 62
     7
 10
10.8464
 20
8.5353
 30
0
 40
0.0833
  1
58322
 50
0
999
Geneva
  0
TEXT
  8
LAYER1
 62
     7
 10
11.4019
 20
8.5353
 30
0
 40
0.0833
  1
58323
 50
0
999
Geneva
  0
TEXT
  8
LAYER1
 62
     7
 10
11.9992
 20
8.5353
 30
0
 40
0.0833
  1
58324
 50
0
999
Geneva
  0
TEXT
  8
LAYER1
 62
     7
 10
12.5547
 20
8.5353
 30
0
 40
0.0833
  1
58325
 50
0
999
Geneva
  0
TEXT
  8
LAYER1
 62
     7
 10
13.1797
 20
8.5353
 30
0
 40
0.0833
  1
58326
 50
0
999
Geneva
  0
TEXT
  8
LAYER1
 62
     7
 10
13.8742
 20
8.5353
 30
0
 40
0.0833
  1
58327
 50
0
999
Geneva
  0
TEXT
  8
LAYER1
 62
     7
 10
9.7769
 20
6.1603
 30
0
 40
0.0833
  1
58328
 50
0
999
Geneva
  0
TEXT
  8
LAYER1
 62
     7
 10
10.3186
 20
6.1603
 30
0
 40
0.0833
  1
58329
 50
0
999
Geneva
  0
TEXT
  8
LAYER1
 62
     7
 10
10.8464
 20
6.1603
 30
0
 40
0.0833
  1
58330
 50
0
999
Geneva
  0
TEXT
  8
LAYER1
 62
     7
 10
11.4019
 20
6.1603
 30
0
 40
0.0833
  1
58331
 50
0
999
Geneva
  0
TEXT
  8
LAYER1
 62
     7
 10
11.9992
 20
6.1603
 30
0
 40
0.0833
  1
58332
 50
0
999
Geneva
  0
TEXT
  8
LAYER1
 62
     7
 10
12.5547
 20
6.1603
 30
0
 40
0.0833
  1
58333
 50
0
999
Geneva
  0
TEXT
  8
LAYER1
 62
     7
 10
13.1797
 20
6.1603
 30
0
 40
0.0833
  1
58334
 50
0
999
Geneva
  0
TEXT
  8
LAYER1
 62
     7
 10
13.8742
 20
6.1603
 30
0
 40
0.0833
  1
58335
 50
0
999
Geneva
  0
TEXT
  8
LAYER1
 62
     7
 10
9.7769
 20
3.7992
 30
0
 40
0.0833
  1
58336
 50
0
999
Geneva
  0
TEXT
  8
LAYER1
 62
     7
 10
10.3186
 20
3.7992
 30
0
 40
0.0833
  1
58337
 50
0
999
Geneva
  0
TEXT
  8
LAYER1
 62
     7
 10
10.8464
 20
3.7992
 30
0
 40
0.0833
  1
58338
 50
0
999
Geneva
  0
TEXT
  8
LAYER1
 62
     7
 10
11.4019
 20
3.7992
 30
0
 40
0.0833
  1
58339
 50
0
999
Geneva
  0
TEXT
  8
LAYER1
 62
     7
 10
11.9992
 20
3.7992
 30
0
 40
0.0833
  1
58340
 50
0
999
Geneva
  0
TEXT
  8
LAYER1
 62
     7
 10
12.5547
 20
3.7992
 30
0
 40
0.0833
  1
58341
 50
0
999
Geneva
  0
TEXT
  8
LAYER1
 62
     7
 10
13.1797
 20
3.7992
 30
0
 40
0.0833
  1
58342
 50
0
999
Geneva
  0
TEXT
  8
LAYER1
 62
     7
 10
13.8742
 20
3.7992
 30
0
 40
0.0833
  1
58343
 50
0
999
Geneva
  0
ENDBLK
  8
LAYER1
  0
ENDSEC
  0
SECTION
  2
ENTITIES
  0
INSERT
  8
LAYER1
  2
Group80
 10
0
 20
0
 30
0
  0
ENDSEC
  0
EOF
